Song name
# A B C D E F G H I J K L M N O P Q R S T U V W X Y Z

Misc - Nokia Theme tab

This is the nokia ring tone thing, i think its amusing to play at certain times,
i think it sounds right.


High Version

e---------------------------------------------|
b--17--15--------14p12--------12--------------|
g---------12-13-------------------14-------14-|
d----------------------12-14----------12-14---|
a---------------------------------------------|
e---------------------------------------------|

Lower Version
e-0------------------------------|
b---3--------2p0----0------------|
g---------1-------------2------2-|
d------4--------0-2----------2---|
a-------------------------4------|
e--------------------------------|

Enjoy
Cammies
Tap to rate this tab
# A B C D E F G H I J K L M N O P Q R S T U V W X Y Z