Song name
# A B C D E F G H I J K L M N O P Q R S T U V W X Y Z

Mischief Brew - Children Play With Matches tab

This is my first guitar tab, I learned this song and went to look at the tabs afterwards 
and there was none. So I decided to make this.

I'm sure its not completely accurate, but It is fun to play. If you have any questions 
or problems you can message me on MSN live messenger @retardofdamonth@yahoo.com

Have fun and listen to mischief brew.

Standard Tuning E A D G B E
X's = Chuck or muted strums
/'s = Slides


Intro

---xx---x---x---------xx---x---x---------xx---x---x---------xx---x---xx------|
---xx---x---x---------xx---x---x---------xx---x---x---------xx---x---xx------|
---xx---x---x-7/9-7-5-xx---x---x-7/9-7-9-xx---x---x-7/9-7-5-xx---x---xx------|
---xx---x---x-7/9-7-5-xx---x---x-7/9-7-9-xx---x---x-7/9-7-5-xx---x---xx------|
-3-xx---x-3-x-5/7-5-3-xx---x-3-x-5/7-5-7-xx---x-3-x-5/7-5-3-xx---x-3-xx------|
---xx-3-x---x---------xx-3-x---x---------xx-3-x---x---------xx-3-x---xx------|

Children Play with Matches start A Fire x2
---xx---x---xx---x---xx---x---x-------x---xx---x---xx---x---xx---x-----------|
---xx---x---xx---x---xx---x---x-------x---xx---x---xx---x---xx---x-----------|
---xx---x---xx---x---xx---x---x-------x---xx---x---xx---x---xx---x-----------|
---xx---x---xx---x---xx---x---x-------x---xx---x---xx---x---xx---x-----------|
-3-xx---x-3-xx---x---xx-3-x---x-------x-5-xx---x-5-xx-3-x---xx-3-x-----------|
---xx-3-x---xx-3-x-1-xx---x-1-x-1-2-3-x---xx-3-x---xx---x-3-xx---x-----------|

Don't ever do what you're told, The old are just Old
---xx---x-----------x---xx----x-------x---xx----x---xx---xx---x---x----------|
---xx---x-----------x---xx----x-------x---xx----x---xx---xx---x---x----------|
---xx---x-----------x---xx----x-------x---xx----x---xx---xx---x---x-7/9-7----|
---xx---x-----------x---xx----x-------x---xx----x---xx---xx---x---x-7/9-7----|
-3-xx---x-3-3-2-1---x-3-xx----x-------x-5-xx----x-5-xx-3-xx---x-3-x-5/7-5----|
---xx-3-x---------1-x---xx--1-x-1-2-3-x---xx--3-x---xx---xx-3-x---x----------|

Children play with fire tend a blaze x2
---xx---x---xx---x---xx---x---x-------x---xx---x---xx---x---xx---x-----------|
---xx---x---xx---x---xx---x---x-------x---xx---x---xx---x---xx---x-----------|
---xx---x---xx---x---xx---x---x-------x---xx---x---xx---x---xx---x-7/9-7-----|
---xx---x---xx---x---xx---x---x-------x---xx---x---xx---x---xx---x-7/9-7-----|
-3-xx---x-3-xx---x---xx-3-x---x-------x-5-xx---x-5-xx-3-x---xx-3-x-5/7-5-----|
---xx-3-x---xx-3-x-1-xx---x-1-x-1-2-3-x---xx-3-x---xx---x-3-xx---x-----------|

You know where he keeps his drinks and lots of poisons under the sink
---xx---x-----------x---xx----x-------x---xx----x---xx---xx---x--------------|
---xx---x-----------x---xx----x-------x---xx----x---xx---xx---x---1-1--------|
---xx---x-----------x---xx----x-------x---xx----x---xx---xx---x--------------|
---xx---x-----------x---xx----x-------x---xx----x---xx---xx---x---2-2--------|
-3-xx---x-3-3-2-1---x-3-xx----x-------x-5-xx----x-5-xx-3-xx---x-3-3-3--------|
---xx-3-x---------1-x---xx--1-x-1-2-3-x---xx--3-x---xx---xx-3-x--------------|

The world is dry and brittle and dead
-0-------------------------------------|
-1-------------------------------------|
-2---Hold this chord out---------------|
-3-------------------------------------|
-3-------------------------------------|
-x-------------------------------------|

If we mix it all together, Oh what a colorful blast!
---xx---x----xx----x---xx---x---0-x-x----------------------------------------|
---xx---x----xx----x---xx---x---1-2-3----------------------------------------|
---xx---x----xx----x---xx---x---2-3-4----------------------------------------|
---xx---x----xx----x---xx---x---3-4-5----------------------------------------|
-3-xx---x--3-xx----x---xx-3-x---3-4-5----------------------------------------|
---xx-3-x----xx--3-x-1-xx---x-1-x-x-x----------------------------------------|

only shout when spoken to
---xx---x---xx---x----------------------|
---xx---x---xx---x----------------------|
---xx---x---xx---x----------------------|
---xx---x---xx---x----------------------|
-3-xx---x-3-xx---x----------------------|
---xx-3-x---xx-3-x----------------------|

Curse your way through church and school
---xx---x---xx---x----------------------|
---xx---x---xx---x----------------------|
---xx---x---xx---x----------------------|
---xx---x---xx---x----------------------|
---xx-3-x---xx-3-x----------------------|
-1-xx---x-1-xx---x----------------------|

And mess around with fathers power Tools
---xx---x---xx---x---xx---x---x---------|
---xx---x---xx---x---xx---x---x---------|
---xx---x---xx---x---xx---x---x---------|
---xx---x---xx---x---xx---x---x---------|
---xx-5-x---xx-5-x-3-xx---x-3-x---------|
-3-xx---x-3-xx---x---xx-3-x---x---------|

Children play beyond the keep out signs x2
-x-x-x-x--0-0-0-0--x--x-x-x-x--x-x-x-x--|
-1-1-1-1--1-1-1-1--2--3-3-3-3--1-1-1-1--|
-0-0-0-0--2-2-2-2--3--4-4-4-4--0-0-0-0--|
-2-2-2-2--3-3-3-3--4--5-5-5-5--2-2-2-2--|
-3-3-3-3--3-3-3-3--4--5-5-5-5--3-3-3-3--|
-x-x-x-x--x-x-x-x--x--x-x-x-x--x-x-x-x--|


The world is dry and brittle and dead, it'll go up in a flash
-0-0-0-0--x-x-x-x-----------------------|
-1-1-1-1--1-1-1-1-----------------------|
-2-2-2-2--0-0-0-0-----------------------|
-3-3-3-3--2-2-2-2-----------------------|
-3-3-3-3--3-3-3-3-----------------------|
-x-x-x-x--x-x-x-x-----------------------|

If we mix it all together, Oh what a colorful Blast!
-0-0-0-0--x--x--0-----------------------|
-1-1-1-1--2--3--3-----------------------|
-2-2-2-2--3--4--4-----------------------|
-3-3-3-3--4--5--------------------------|
-3-3-3-3--4--5--------------------------|
-x-x-x-x--x--x--------------------------|

only shout when spoken to!
---xx---x---xx---x----------------------|
---xx---x---xx---x----------------------|
---xx---x---xx---x----------------------|
---xx---x---xx---x----------------------|
-3-xx---x-3-xx---x----------------------|
---xx-3-x---xx-3-x----------------------|

Curse your way through church and school!
---xx---x---xx---x----------------------|
---xx---x---xx---x----------------------|
---xx---x---xx---x----------------------|
---xx---x---xx---x----------------------|
---xx-3-x---xx-3-x----------------------|
-1-xx---x-1-xx---x----------------------|

And mess around with fathers power Tools! ( He'll never use! )
---xx---x---xx---x---xx---x---x---------|
---xx---x---xx---x---xx---x---x---------|
---xx---x---xx---x---xx---x---x---------|
---xx---x---xx---x---xx---x---x---------|
---xx-5-x---xx-5-x-3-xx---x-3-x---------|
-3-xx---x-3-xx---x---xx-3-x---x---------|

Children lead us to the lake of fire, FIRE! x2
---xx---x---xx---x---1-1-----------xx---x---xx---x---x-x------------|
---xx---x---xx---x---1-1-----------xx---x---xx---x---5-5------------|
---xx---x---xx---x---2-2-----------xx---x---xx---x---5-5------------|
---xx---x---xx---x---3-3--FIRE!----xx---x---xx---x---5-5--FIRE!-----|
-3-xx---x-3-xx---x---3-3-----------xx-5-x---xx-5-x-3-3-3------------|
---xx-3-x---xx-3-x-1-1-1---------3-xx---x-3-xx---x---x-x------------|

And as we drive down into the flames, maybe i'll let you hold the reigns
---xx---x---xx---x---xx---x-----------------------------------------|
---xx---x---xx---x---xx---x-----------------------------------------|
---xx---x---xx---x---xx---x-----------------------------------------|
---xx---x---xx---x---xx---x-----------------------------------------|
-3-xx---x-3-xx---x---xx-3-x-5---------------------------------------|
---xx-3-x---xx-3-x-1-xx---x-----------------------------------------|

Children Lead us to the lake of fire. Children play with matches start a fire!
-x-x-x-x--x-x-x-x--0-0-0-0--x--x-x-x-x--x-x-x-x--0-0-0-0--x--x-x-x-x-|
-3-3-3-3--1-1-1-1--1-1-1-1--2--3-3-3-3--1-1-1-1--1-1-1-1--2--3-3-3-3-|
-4-4-4-4--0-0-0-0--2-2-2-2--3--4-4-4-4--0-0-0-0--2-2-2-2--3--4-4-4-4-|
-5-5-5-5--2-2-2-2--3-3-3-3--4--5-5-5-5--2-2-2-2--3-3-3-3--4--5-5-5-5-|
-5-5-5-5--3-3-3-3--3-3-3-3--4--5-5-5-5--3-3-3-3--3-3-3-3--4--5-5-5-5-|
-x-x-x-x--x-x-x-x--x-x-x-x--x--x-x-x-x--x-x-x-x--x-x-x-x--x--x-x-x-x-|

Just a little gasoline and watch the people scream!
-x-x-x-x--0-0-0-0--x--x-x-x-x---|
-1-1-1-1--1-1-1-1--2--3-3-3-3---|
-0-0-0-0--2-2-2-2--3--4-4-4-4---|
-2-2-2-2--3-3-3-3--4--5-5-5-5---|
-3-3-3-3--3-3-3-3--4--5-5-5-5---|
-x-x-x-x--x-x-x-x--x--x-x-x-x---|

Children play with matches, Children play with matches, Children play with matches start 
a fire!
-3-xxxxxxxx-x---x--3-xxxxxxxx-x---x--3-3-3-x----x-x-x-x--1-3-x---------------|
-3-xxxxxxxx-x---x--3-xxxxxxxx-x---x--3-3-3-x----0-0-0-0--1-3-5---------------|
-3-xxxxxxxx-5/7-7--3-xxxxxxxx-5/7-7--3-3-3-5/7--1-1-1-1--1-3-5---------------|
-4-xxxxxxxx-5/7-7--4-xxxxxxxx-5/7-7--4-4-4-5/7--0-0-0-0--2-4-5---------------|
-5-xxxxxxxx-5/7-7--5-xxxxxxxx-5/7-7--5-5-5-5/7--2-2-2-2--3-5-5---------------|
-5-xxxxxxxx-3/5-5--5-xxxxxxxx-3/5-5--5-5-5-3/5--3-3-3-3--3-5-3---------------|
-3-xxxxxxxx-x---x--3-xxxxxxxx-x---x--3-3-3-x----x-x-x-x--1-3-x---------------|
Tap to rate this tab
 
# A B C D E F G H I J K L M N O P Q R S T U V W X Y Z