Song name
# A B C D E F G H I J K L M N O P Q R S T U V W X Y Z

Mischief Brew - Punx Win tab

Capo 4
Main Riff
    G-------G   C--------C  
e||-----------I--------------||
B||----3------I----3---------||
G||--0---4-2--I--0---4-2-----||
D||--0---2-0--I------2-0-----||
A||--x--------I--3-----------||
E||--3--------I--------------||

Full Chords
|C C C C |D D D D |Em Em D D |C C C C | 

Main Riff
    G-------G   C--------C  
e||-----------I--------------||
B||----3------I----3---------||
G||--0---4-2--I--0---4-2-----||
D||--0---2-0--I------2-0-----||
A||--x--------I--3-----------||
E||--3--------I--------------||

Full Chords
|C C C C |D D D D |Em Em D D |C C C/b C/b |Am Am Am Am |Cm~ |

G-base chords
     G   Em   D   C   Em   D
e||--3----3---2---3---3----2--||
B||--3----3---3---3---3----3--||
G||-----------2------------2--||
D||-------2-------2---2-------||
A||--2----2-------3---2-------||
E||--3------------------------||

Full Chords
|C C C C |D D D D |Em Em D D |C C G G|
|Am Am Am Am |C C D D|G G B7 B7 |C C C C |Cm

Main Riff
    G-------G   C--------C  
e||-----------I--------------||
B||----3------I----3---------||
G||--0---4-2--I--0---4-2-----||
D||--0---2-0--I------2-0-----||
A||--x--------I--3-----------||
E||--3--------I--------------||

Bridge 
e||--------------------I----------------||
B||--------------------I----------------||
G||----0-----0-----0-2-I---0-----0-4-2--||
D||------------2p0---0-I-----0h2---2-0--||
A||------0h2-----------I-3--------------||
E||--3-----------------I----------------||


Main Riff
    G-------G   C--------C  
e||-----------I--------------||
B||----3------I----3---------||
G||--0---4-2--I--0---4-2-----||
D||--0---2-0--I------2-0-----||
A||--x--------I--3-----------||
E||--3--------I--------------||

Full Chords
|C C C C |D D D D |Em Em D D |C C C C|
|G G G G |C C D D |Em Em D D |C C D D|
|C C C C |D D D D |Em Em D D |C C C/b C/b|
|Am Am Am Am |C C D D|G G B7 B7 |C C C C |
|Cm Cm Cm Cm |

G-base chords
     G   Em   D   C   Em   D
e||--3----3---2---3---3----2--||
B||--3----3---3---3---3----3--||
G||-----------2------------2--||
D||-------2-------2---2-------||
A||--2----2-------3---2-------||
E||--3------------------------||

End on G

Tap to rate this tab
 
# A B C D E F G H I J K L M N O P Q R S T U V W X Y Z