Mischief Brew - Jobs In Steel Town chords

Highlighted       Show chord diagrams
This definitely isn't perfect but it sounds pretty close to me. I would be happy to make 
edits if folks would like to help out. I'll add the intro and actually fill in the 
chords for all of the verses when I'm at a computer instead of mobile.

Standard tuning, capo 3.

Em   0 2 2 0 0 0
G    3 2 0 0 3 3
A    x 0 2 2 0 0
C.   x 3 2 0 1 0
Bm7  0 2 1 2 0 2
Em*  0 2 2 3 0 0

Intro:

e|---3-0---0----------|
b|-------3---0---0----|
g|------------2h3-0---|
d|-2---------------0--|
a|-2------------------|
E|-0------------------|

e|---3-0-------------------|
b|-------0-0-0-------------|
g|--------3-3-3p2p0--------|
d|-2-----------------0h2h5-|
a|-2-----------------------|
E|-0-----------------------|

e|---3-0---0-----------|
b|-------3---0-----0---|
g|--0-----------2h3-0--|
d|-2-----------------0-|
a|-2-------------------|
E|-0-------------------|

e|--0-3-0------------------|
b|-------0-0-0-------------|
g|--------3-3-3p2p0--------|
d|-2-----------------0h2h5-|
a|-2-----------------------|
E|-0-----------------------|

e|----0-0------------------|
b|----0-0---------------0--|
g|----0-0-----------3--3-3-|
d|-2----------------2------|
a|-2-------3-2------2------|
E|-0-----------5-3-0-------|

e|----0-0-------------|
b|----0-0-------------|
g|----0-0-----------3-|
d|-2----------------2-|
a|-2-------3-2------2-|
E|-0-----------5-3-0--|


      Em.         G.        A.         Em
Well once upon a time this town had a name
           Em.             G                  A.        Em
built the girders for the buildings that you climb everyday
         C.        Em.         G.       Em
but the well went dry and the crops all died
           Em.          G.              A       Em
now there ain't much to show you but a highway sign

       C.            Bm7(?)        Em
but i swear to that statue in the square
            G.                   C
that there used to be something there
               Bm7.              G.   Em
but now there ain't no jobs in steel town
          Em*-
not anymore
             G.   Em
no jobs in steel town
             Em*
no not anymore

Same as 1st part:

well business man in business suit
he used lots of big words like economic and boom
theres tons of waste that needs a place
well we've got the money if you've got the space
and besides you need to be revitalized
and your workers need 9 to 5's
and hey its good for jobs in steel town
not like before
more jobs in steel town
no not like before

Same pattern...

well it once was steel now its iron bars
they need food spooners janitors and prison guards
and they look out
and i look in
sometimes I forget who the prisoner is
but its fine
'cause their numbers are on the rise
bad bad guys got another side
and hey its good for jobs in steeltown
for the working and poor
more in jobs in steeltown
for the working and poor

Em G Em G x2

     Em.            G.          Em G
from wall street to main street
        Em.         G.          Em G
to the edge of your name street
        Em.          G.        Em.  G
try and connect the dots and see
        Em*
we all live on the same street

well the days gonna come when the well goes dry
the executives'll pack up and say good bye
and they'll smile and wave
and we'll say wait
you forgot your pile of toxic waste

hey we got families to raise
this is where i've got to plant my grave
but no there ain't no jobs no there ain't no jobs in steeltown
no not anymore
no jobs in steel town
just like before

no jobs in steel town
for the working and poor
no jobs in steel town
no not anymore

no jobs in steel town
Tap to rate this tab
 
# A B C D E F G H I J K L M N O P Q R S T U V W X Y Z