Song name
# A B C D E F G H I J K L M N O P Q R S T U V W X Y Z

Misere Nobis - Regnat Silentium tab

-------------------------------------------------------------------------------
                             Regnat Silentium - Misere Nobis
-------------------------------------------------------------------------------
Tabbed by:karlozz
E-mail:never_corpse@hotmail.com

Regnat Silentium Intro
Tuning:Standar

e|-----------------------------------------------------------------------------|
B|-2-----------2-----3-----5-----------3------2---0-------------0----2---------|
G|----------------------------------------------------------------------2----1-|
D|------4---------4-----4--------6--------4---------------2--------2----2------|
A|-4-4-----4---4-----------7--7-----7-------------2---2------2-----------------|
E|---------------------------------------------------------------------------4-|
Tap to rate this tab
# A B C D E F G H I J K L M N O P Q R S T U V W X Y Z