Song name
# A B C D E F G H I J K L M N O P Q R S T U V W X Y Z

Misery Index - Demand The Impossible tab

Misery Index
Demand The Impossible
C# Tuning


C#||------------------|------------------------|---------------------------|
G#||------------------|------------------------|---------------------------|
E ||------------------|------------------------|---------------------------|
B ||------------------|------------------------|---------------------------|
F#||------------------|--5--5----5--4--4----4--|--2--2---------------------|
C#||------------------|--3--3----3--2--2----2--|--0--0----0--0-0-0--0-0-0--|
                         .       .  .       .     .       .  . . .  . . .


------------------------|------------------------------|
------------------------|------------------------------|
------------------------|------------------------------|
------------------------|------------------------------|
--5--5----5--4--4----4--|------------------------------|
--3--3----3--2--2----2--|--0-0-0--0-0-0--0-0-0--0-0-0--|
  .       .  .       .     . . .  . . .  . . .  . . .


------------------------|---------------------------|----------------------|
------------------------|---------------------------|----------------------|
------------------------|---------------------------|----------------------|
------------------------|---------------------------|----------------------|
--5--5----5--4--4----4--|--2--2---------------------|--2----3----6----3----|
--3--3----3--2--2----2--|--0--0----0--0-0-0--0-0-0--|--0----1----4----1----|
  .       .  .       .     .       .  . . .  . . .


----------------------|------------------------|---------------------------|
----------------------|------------------------|---------------------------|
----------------------|------------------------|---------------------------|
----------------------|------------------------|---------------------------|
--8----7----4----7----|--5--5----5--4--4----4--|--2--2---------------------|
--6----5----2----5----|--3--3----3--2--2----2--|--0--0----0--0-0-0--0-0-0--|
                         .       .  .       .     .       .  . . .  . . .


------------------------|------------------------------|
------------------------|------------------------------|
------------------------|------------------------------|
------------------------|------------------------------|
--5--5----5--4--4----4--|------------------------------|
--3--3----3--2--2----2--|--0-0-0--0-0-0--0-0-0--0-0-0--|
  .       .  .       .     . . .  . . .  . . .  . . .


------------------------|---------------------------|----------------------|
------------------------|---------------------------|----------------------|
------------------------|---------------------------|----------------------|
------------------------|---------------------------|----------------------|
--5--5----5--4--4----4--|--2--2---------------------|--2----3----6----3----|
--3--3----3--2--2----2--|--0--0----0--0-0-0--0-0-0--|--0----1----4----1----|
  .       .  .       .     .       .  . . .  . . .


----------------------|------------------------|---------------------------|
----------------------|------------------------|---------------------------|
----------------------|------------------------|---------------------------|
----------------------|------------------------|---------------------------|
--8----7----4----7----|--5--5----5--4--4----4--|--2--2---------------------|
--6----5----2----5----|--3--3----3--2--2----2--|--0--0----0--0-0-0--0-0-0--|
                         .       .  .       .     .       .  . . .  . . .

------------------------|------------------------------|
------------------------|------------------------------|
------------------------|------------------------------|
------------------------|------------------------------|
--5--5----5--4--4----4--|------------------------------|
--3--3----3--2--2----2--|--0-0-0--0-0-0--0-0-0--0-0-0--|
  .       .  .       .     . . .  . . .  . . .  . . .


------------------------|---------------------------|----------------------|
------------------------|---------------------------|----------------------|
------------------------|---------------------------|----------------------|
------------------------|---------------------------|----------------------|
--5--5----5--4--4----4--|--2--2---------------------|--2----3----6----3----|
--3--3----3--2--2----2--|--0--0----0--0-0-0--0-0-0--|--0----1----4----1----|
  .       .  .       .     .       .  . . .  . . .


----------------------|--------------------------|--------------------------|
----------------------|--------------------------|--------------------------|
----------------------|--------------------------|--------------------------|
----------------------|----------2-2-2-2-5-5-5-5-|----------3-3-3-3-6-6-6-6-|
--8----7----4----7----|--------------------------|--------------------------|
--6----5----2----5----|--0-0-0-0-----------------|--0-0-0-0-----------------|



--------------------------|----------------------|--------------------------|
--------------------------|----------------------|--------------------------|
--------------------------|----------------------|--------------------------|
----------2-2-2-2-5-5-5-5-|----------------------|----------2-2-2-2-5-5-5-5-|
--------------------------|--6----5----3----5----|--------------------------|
--0-0-0-0-----------------|--4----3----1----3----|--0-0-0-0-----------------|



--------------------------|--------------------------|----------------------|
--------------------------|--------------------------|----------------------|
--------------------------|--------------------------|----------------------|
----------3-3-3-3-6-6-6-6-|----------2-2-2-2-5-5-5-5-|----------------------|
--------------------------|--------------------------|--6----5----3----5----|
--0-0-0-0-----------------|--0-0-0-0-----------------|--4----3----1----3----|



--------------------------|--------------------------|
--------------------------|--------------------------|
--------------------------|--------------------------|
----------2-2-2-2-5-5-5-5-|----------3-3-3-3-6-6-6-6-|
--------------------------|--------------------------|
--0-0-0-0-----------------|--0-0-0-0-----------------|



--------------------------|----------------------|--------------------------|
--------------------------|----------------------|--------------------------|
--------------------------|----------------------|--------------------------|
----------2-2-2-2-5-5-5-5-|----------------------|----------2-2-2-2-5-5-5-5-|
--------------------------|--6----5----3----5----|--------------------------|
--0-0-0-0-----------------|--4----3----1----3----|--0-0-0-0-----------------|



--------------------------|--------------------------|----------------------|
--------------------------|--------------------------|----------------------|
--------------------------|--------------------------|----------------------|
----------3-3-3-3-6-6-6-6-|----------2-2-2-2-5-5-5-5-|----------------------|
--------------------------|--------------------------|--6----5----3----5----|
--0-0-0-0-----------------|--0-0-0-0-----------------|--4----3----1----3----|



--------------------------|--------------------------|
--------------------------|--------------------------|
--------------------------|--------------------------|
--------------------------|--------------------------|
--2--2--2--2--2--2--2--2--|--------------------------|
--0--0--0--0--0--0--0--0--|--0--1--3--4--0--1--3--4--|
  .  .  .  .  .  .  .  .


--------------------------|--------------------------|
--------------------------|--------------------------|
--------------------------|--------------------------|
--------------------------|--------------------------|
--2--2--2--2--2--2--2--2--|--------------------------|
--0--0--0--0--0--0--0--0--|--0--1--3--4--0--1--3--4--|
  .  .  .  .  .  .  .  .


--------------------------|--------------------------|
--------------------------|--------------------------|
--------------------------|--------------------------|
--------------------------|--------------------------|
--2--2--2--2--2--2--2--2--|--------------------------|
--0--0--0--0--0--0--0--0--|--0--1--3--4--0--1--3--4--|
  .  .  .  .  .  .  .  .


--------------------------|--------------------------|
--------------------------|--------------------------|
--------------------------|--9--9--9--9--9--9--9--9--|
--------------------------|--9--9--9--9--9--9--9--9--|
--2--2--2--2--2--2--2--2--|--7--7--7--7--7--7--7--7--|
--0--0--0--0--0--0--0--0--|--------------------------|
  .  .  .  .  .  .  .  .


--------------------------|--------------------------|
--------------------------|--------------------------|
--------------------------|--------------------------|
--------------------------|--------------------------|
--2--2--3--2--3/-6--2--2--|--2--2--3/-6--2--2--3/-6--|
--0--0--1--0--1/-4--0--0--|--0--0--1/-4--0--0--1/-4--|
  .  .     .        .  .     .  .        .  .


--------------------------|--------------------------|
--------------------------|--------------------------|
--------------------------|--------------------------|
--------------------------|--------------------------|
--2--2--3--2--3/-6--2--2--|--2--2--3/-6--2--2--3/-6--|
--0--0--1--0--1/-4--0--0--|--0--0--1/-4--0--0--1/-4--|
  .  .     .        .  .     .  .        .  .


--------------------------|--------------------------|
--------------------------|--------------------------|
--------------------------|--------------------------|
--------------------------|--------------------------|
--2--2--3--2--3/-6--2--2--|--2--2--3/-6--2--2--3/-6--|
--0--0--1--0--1/-4--0--0--|--0--0--1/-4--0--0--1/-4--|
  .  .     .        .  .     .  .        .  .


--------------------------|--------------------------|----------------------|
--------------------------|--------------------------|----------------------|
--------------------------|--9--9--9--9--9--9--9--9--|----------------------|
--------------------------|--9--9--9--9--9--9--9--9--|----------------------|
--2--2--3--2--3/-6--2--2--|--7--7--7--7--7--7--7--7--|-5--5----5--4--4----4-|
--0--0--1--0--1/-4--0--0--|--------------------------|-3--3----3--2--2----2-|
  .  .     .        .  .                               .       .  .       .


---------------------------|------------------------|
---------------------------|------------------------|
---------------------------|------------------------|
---------------------------|------------------------|
--2--2---------------------|--5--5----5--4--4----4--|
--0--0----0--0-0-0--0-0-0--|--3--3----3--2--2----2--|
  .       .  . . .  . . .     .       .  .       .


------------------------------|------------------------|
------------------------------|------------------------|
------------------------------|------------------------|
------------------------------|------------------------|
------------------------------|--5--5----5--4--4----4--|
--0-0-0--0-0-0--0-0-0--0-0-0--|--3--3----3--2--2----2--|
  . . .  . . .  . . .  . . .     .       .  .       .


---------------------------|----------------------|----------------------|
---------------------------|----------------------|----------------------|
---------------------------|----------------------|----------------------|
---------------------------|----------------------|----------------------|
--2--2---------------------|--2----3----6----3----|--8----7----4----7----|
--0--0----0--0-0-0--0-0-0--|--0----1----4----1----|--6----5----2----5----|
  .       .  . . .  . . .


----------------------|---------------------------|------------------------|
----------------------|---------------------------|------------------------|
----------------------|---------------------------|------------------------|
----------------------|---------------------------|------------------------|
--5--5----5--4--4----4|--2--2---------------------|--5--5----5--4--4----4--|
--3--3----3--2--2----2|--0--0----0--0-0-0--0-0-0--|--3--3----3--2--2----2--|
  .       .  .       .   .       .  . . .  . . .     .       .  .       .


------------------------------|------------------------|
------------------------------|------------------------|
------------------------------|------------------------|
------------------------------|------------------------|
------------------------------|--5--5----5--4--4----4--|
--0-0-0--0-0-0--0-0-0--0-0-0--|--3--3----3--2--2----2--|
  . . .  . . .  . . .  . . .     .       .  .


---------------------------|----------------------|----------------------|
---------------------------|----------------------|----------------------|
---------------------------|----------------------|----------------------|
---------------------------|----------------------|----------------------|
--2--2---------------------|--2----3----6----3----|--8----7----4----7----|
--0--0----0--0-0-0--0-0-0--|--0----1----4----1----|--6----5----2----5----|
  .       .  . . .  . . .


--------------------------|--------------------------|
--------------------------|--------------------------|
--------------------------|--------------------------|
----------2-2-2-2-5-5-5-5-|----------3-3-3-3-6-6-6-6-|
--------------------------|--------------------------|
--0-0-0-0-----------------|--0-0-0-0-----------------|



--------------------------|----------------------|--------------------------|
--------------------------|----------------------|--------------------------|
--------------------------|----------------------|--------------------------|
----------2-2-2-2-5-5-5-5-|----------------------|----------2-2-2-2-5-5-5-5-|
--------------------------|--6----5----3----5----|--------------------------|
--0-0-0-0-----------------|--4----3----1----3----|--0-0-0-0-----------------|



--------------------------|--------------------------|----------------------|
--------------------------|--------------------------|----------------------|
--------------------------|--------------------------|----------------------|
----------3-3-3-3-6-6-6-6-|----------2-2-2-2-5-5-5-5-|----------------------|
--------------------------|--------------------------|--6----5----3----5----|
--0-0-0-0-----------------|--0-0-0-0-----------------|--4----3----1----3----|



--------------------------|--------------------------|
--------------------------|--------------------------|
--------------------------|--------------------------|
----------2-2-2-2-5-5-5-5-|----------3-3-3-3-6-6-6-6-|
--------------------------|--------------------------|
--0-0-0-0-----------------|--0-0-0-0-----------------|



--------------------------|----------------------|--------------------------|
--------------------------|----------------------|--------------------------|
--------------------------|----------------------|--------------------------|
----------2-2-2-2-5-5-5-5-|----------------------|----------2-2-2-2-5-5-5-5-|
--------------------------|--6----5----3----5----|--------------------------|
--0-0-0-0-----------------|--4----3----1----3----|--0-0-0-0-----------------|



--------------------------|--------------------------|----------------------|
--------------------------|--------------------------|----------------------|
--------------------------|--------------------------|----------------------|
----------3-3-3-3-6-6-6-6-|----------2-2-2-2-5-5-5-5-|----------------------|
--------------------------|--------------------------|--6----5----3----5----|
--0-0-0-0-----------------|--0-0-0-0-----------------|--4----3----1----3----|



--------------------------|--------------------------|
--------------------------|--------------------------|
--------------------------|--------------------------|
--------------------------|--------------------------|
--2--2--2--2--2--2--2--2--|--------------------------|
--0--0--0--0--0--0--0--0--|--0--1--3--4--0--1--3--4--|
  .  .  .  .  .  .  .  .


--------------------------|--------------------------|
--------------------------|--------------------------|
--------------------------|--------------------------|
--------------------------|--------------------------|
--2--2--2--2--2--2--2--2--|--------------------------|
--0--0--0--0--0--0--0--0--|--0--1--3--4--0--1--3--4--|
  .  .  .  .  .  .  .  .


--------------------------|--------------------------|
--------------------------|--------------------------|
--------------------------|--------------------------|
--------------------------|--------------------------|
--2--2--2--2--2--2--2--2--|--------------------------|
--0--0--0--0--0--0--0--0--|--0--1--3--4--0--1--3--4--|
  .  .  .  .  .  .  .  .


--------------------------|--------------------------|
--------------------------|--------------------------|
--------------------------|--9--9--9--9--9--9--9--9--|
--------------------------|--9--9--9--9--9--9--9--9--|
--2--2--2--2--2--2--2--2--|--7--7--7--7--7--7--7--7--|
--0--0--0--0--0--0--0--0--|--------------------------|
  .  .  .  .  .  .  .  .


--------------------------|--------------------------|
--------------------------|--------------------------|
--------------------------|--------------------------|
--------------------------|--------------------------|
--2--2--3--2--3/-6--2--2--|--2--2--3/-6--2--2--3/-6--|
--0--0--1--0--1/-4--0--0--|--0--0--1/-4--0--0--1/-4--|
  .  .     .        .  .     .  .        .  .


--------------------------|--------------------------|
--------------------------|--------------------------|
--------------------------|--------------------------|
--------------------------|--------------------------|
--2--2--3--2--3/-6--2--2--|--2--2--3/-6--2--2--3/-6--|
--0--0--1--0--1/-4--0--0--|--0--0--1/-4--0--0--1/-4--|
  .  .     .        .  .     .  .        .  .


--------------------------|--------------------------|
--------------------------|--------------------------|
--------------------------|--------------------------|
--------------------------|--------------------------|
--2--2--3--2--3/-6--2--2--|--2--2--3/-6--2--2--3/-6--|
--0--0--1--0--1/-4--0--0--|--0--0--1/-4--0--0--1/-4--|
  .  .     .        .  .     .  .        .  .


------------------------|--------------------------|-----------------------|
------------------------|--------------------------|-----------------------|
------------------------|--9--9--9--9--9--9--9--9--|-----------------------|
------------------------|--9--9--9--9--9--9--9--9--|-----------------------|
--2--2--3--2--3/-6--2--2|--7--7--7--7--7--7--7--7--|---------2-2-2--5-5-5--|
--0--0--1--0--1/-4--0--0|--------------------------|--0-0-0----------------|
  .  .     .        .  .                              . . .  . . .  . . .


-----------------------|-----------------------|-----------------|
-----------------------|-----------------------|-----------------|
-----------------------|-----------------------|-----------------|
-----------------------|-----------------------|-----------------|
---------3-3-3--6-6-6--|---------2-2-2--5-5-5--|--5----6----3----|
--0-0-0----------------|--0-0-0----------------|--3----4----1----|
  . . .  . . .  . . .     . . .  . . .  . . .


-----------------------|-----------------------|-----------------------|
-----------------------|-----------------------|-----------------------|
-----------------------|-----------------------|-----------------------|
-----------------------|-----------------------|-----------------------|
---------2-2-2--5-5-5--|---------3-3-3--6-6-6--|---------2-2-2--5-5-5--|
--0-0-0----------------|--0-0-0----------------|--0-0-0----------------|
  . . .  . . .  . . .     . . .  . . .  . . .     . . .  . . .  . . .


-----------------|-----------------------|-----------------------|
-----------------|-----------------------|-----------------------|
-----------------|-----------------------|-----------------------|
-----------------|-----------------------|-----------------------|
--2----3----6----|---------2-2-2--5-5-5--|---------3-3-3--6-6-6--|
--0----1----4----|--0-0-0----------------|--0-0-0----------------|
                    . . .  . . .  . . .     . . .  . . .  . . .


-----------------------|-----------------|-----------------------|
-----------------------|-----------------|-----------------------|
-----------------------|-----------------|-----------------------|
-----------------------|-----------------|-----------------------|
---------2-2-2--5-5-5--|--5----6----3----|---------2-2-2--5-5-5--|
--0-0-0----------------|--3----4----1----|--0-0-0----------------|
  . . .  . . .  . . .                       . . .  . . .  . . .


-----------------------|-----------------------|-----------------|
-----------------------|-----------------------|-----------------|
-----------------------|-----------------------|-----------------|
-----------------------|-----------------------|-----------------|
---------3-3-3--6-6-6--|---------2-2-2--5-5-5--|--2----3----6----|
--0-0-0----------------|--0-0-0----------------|--0----1----4----|
  . . .  . . .  . . .     . . .  . . .  . . .


---------------------|---------------------|---------------------|
---------------------|---------------------|---------------------|
---------------------|---------------------|---------------------|
---------------------|---------------------|---------------------|
--4------------------|--5------------------|--7------------------|
--2----0-0-0--0-0-0--|--3----0-0-0--0-0-0--|--5----0-0-0--0-0-0--|
       . . .  . . .          . . .  . . .          . . .  . . .


--------------------|---------------------|---------------------|
--------------------|---------------------|---------------------|
--------------------|---------------------|---------------------|
--------------------|---------------------|---------------------|
--8/-9/-8/-9/-8/-9--|--4------------------|--5------------------|
--6/-7/-6/-7/-6/-7--|--2----0-0-0--0-0-0--|--3----0-0-0--0-0-0--|
                            . . .  . . .          . . .  . . .


----------------|-----------------|---------------------|-------------------|
----------------|-----------------|---------------------|-------------------|
----------------|-----------------|---------------------|-------------------|
----------------|-----------------|---------------------|-------------------|
--2---3----6----|--2----3----6----|--4------------------|5------------------|
--0---1----4----|--0----1----4----|--2----0-0-0--0-0-0--|3----0-0-0--0-0-0--|
                                          . . .  . . .        . . .  . . .


---------------------|--------------------|---------------------|
---------------------|--------------------|---------------------|
---------------------|--------------------|---------------------|
---------------------|--------------------|---------------------|
--7------------------|--8/-9/-8/-9/-8/-9--|--4------------------|
--5----0-0-0--0-0-0--|--6/-7/-6/-7/-6/-7--|--2----0-0-0--0-0-0--|
       . . .  . . .                               . . .  . . .


------------------|-----------------|-----------------|---------------------|
------------------|-----------------|-----------------|---------------------|
------------------|-----------------|-----------------|---------------------|
------------------|-----------------|-----------------|---------------------|
5-----------------|--2----3----6----|--2----3----6----|--4------------------|
3----0-0-0--0-0-0-|--0----1----4----|--0----1----4----|--2----0-0-0--0-0-0--|
     . . .  . . .                                             . . .  . . .


---------------------|---------------------|--------------------|
---------------------|---------------------|--------------------|
---------------------|---------------------|--------------------|
---------------------|---------------------|--------------------|
--5------------------|--7------------------|--8/-9/-8/-9/-8/-9--|
--3----0-0-0--0-0-0--|--5----0-0-0--0-0-0--|--6/-7/-6/-7/-6/-7--|
       . . .  . . .          . . .  . . .


------------------|---------------------|-----------------|-----------------|
------------------|---------------------|-----------------|-----------------|
------------------|---------------------|-----------------|-----------------|
------------------|---------------------|-----------------|-----------------|
4-----------------|--5------------------|--2----3----6----|--2----3----6----|
2---0-0-0--0-0-0--|--3----0-0-0--0-0-0--|--0----1----4----|--0----1----4----|
    . . .  . . .          . . .  . . .


---------------------|---------------------|---------------------|
---------------------|---------------------|---------------------|
---------------------|---------------------|---------------------|
---------------------|---------------------|---------------------|
--4------------------|--5------------------|--7------------------|
--2----0-0-0--0-0-0--|--3----0-0-0--0-0-0--|--5----0-0-0--0-0-0--|
       . . .  . . .          . . .  . . .          . . .  . . .


--------------------|---------------------|---------------------|
--------------------|---------------------|---------------------|
--------------------|---------------------|---------------------|
--------------------|---------------------|---------------------|
--8/-9/-8/-9/-8/-9--|--4------------------|--5------------------|
--6/-7/-6/-7/-6/-7--|--2----0-0-0--0-0-0--|--3----0-0-0--0-0-0--|
                            . . .  . . .          . . .  . . .


-----------------|-----------------|-----------------|-----------------|
-----------------|-----------------|-----------------|-----------------|
-----------------|-----------------|-----------------|-----------------|
-----------------|-----------------|-----------------|-----------------|
--2----3----6----|--2----3----6----|--2----3----6----|--2----3----6----|
--0----1----4----|--0----1----4----|--0----1----4----|--0----1----4----|
  .    .    .       .    .    .       .    .    .       .    .    .


---------------------|---------------------------|------------------------|
---------------------|---------------------------|------------------------|
---------------------|---------------------------|------------------------|
---------------------|---------------------------|------------------------|
5--5----5--4--4----4-|--2--2---------------------|--5--5----5--4--4----4--|
3--3----3--2--2----2-|--0--0----0--0-0-0--0-0-0--|--3--3----3--2--2----2--|
.       .  .       .    .       .  . . .  . . .     .       .  .       .


------------------------------|------------------------|
------------------------------|------------------------|
------------------------------|------------------------|
------------------------------|------------------------|
------------------------------|--5--5----5--4--4----4--|
--0-0-0--0-0-0--0-0-0--0-0-0--|--3--3----3--2--2----2--|
  . . .  . . .  . . .  . . .     .       .  .       .


---------------------------|----------------------|----------------------|
---------------------------|----------------------|----------------------|
---------------------------|----------------------|----------------------|
---------------------------|----------------------|----------------------|
--2--2---------------------|--2----3----6----3----|--8----7----4----7----|
--0--0----0--0-0-0--0-0-0--|--0----1----4----1----|--6----5----2----5----|
  .       .  . . .  . . .


---------------------|---------------------------|------------------------|
---------------------|---------------------------|------------------------|
---------------------|---------------------------|------------------------|
---------------------|---------------------------|------------------------|
-5--5----5--4--4----4|--2--2---------------------|--5--5----5--4--4----4--|
-3--3----3--2--2----2|--0--0----0--0-0-0--0-0-0--|--3--3----3--2--2----2--|
 .       .  .       .   .       .  . . .  . . .     .       .  .       .


------------------------------|------------------------|
------------------------------|------------------------|
------------------------------|------------------------|
------------------------------|------------------------|
------------------------------|--5--5----5--4--4----4--|
--0-0-0--0-0-0--0-0-0--0-0-0--|--3--3----3--2--2----2--|
  . . .  . . .  . . .  . . .     .       .  .       .


---------------------------|----------------------|----------------------|
---------------------------|----------------------|----------------------|
---------------------------|----------------------|----------------------|
---------------------------|----------------------|----------------------|
--2--2---------------------|--2----3----6----3----|--8----7----4----7----|
--0--0----0--0-0-0--0-0-0--|--0----1----4----1----|--6----5----2----5----|
  .       .  . . .  . . .


--------------------------|--------------------------|
--------------------------|--------------------------|
--------------------------|--------------------------|
----------2-2-2-2-5-5-5-5-|----------3-3-3-3-6-6-6-6-|
--------------------------|--------------------------|
--0-0-0-0-----------------|--0-0-0-0-----------------|



--------------------------|----------------------|--------------------------|
--------------------------|----------------------|--------------------------|
--------------------------|----------------------|--------------------------|
----------2-2-2-2-5-5-5-5-|----------------------|----------2-2-2-2-5-5-5-5-|
--------------------------|--6----5----3----5----|--------------------------|
--0-0-0-0-----------------|--4----3----1----3----|--0-0-0-0-----------------|



--------------------------|--------------------------|----------------------|
--------------------------|--------------------------|----------------------|
--------------------------|--------------------------|----------------------|
----------3-3-3-3-6-6-6-6-|----------2-2-2-2-5-5-5-5-|----------------------|
--------------------------|--------------------------|--6----5----3----5----|
--0-0-0-0-----------------|--0-0-0-0-----------------|--4----3----1----3----|



--------------------------|--------------------------|
--------------------------|--------------------------|
--------------------------|--------------------------|
----------2-2-2-2-5-5-5-5-|----------3-3-3-3-6-6-6-6-|
--------------------------|--------------------------|
--0-0-0-0-----------------|--0-0-0-0-----------------|



--------------------------|----------------------|--------------------------|
--------------------------|----------------------|--------------------------|
--------------------------|----------------------|--------------------------|
----------2-2-2-2-5-5-5-5-|----------------------|----------2-2-2-2-5-5-5-5-|
--------------------------|--6----5----3----5----|--------------------------|
--0-0-0-0-----------------|--4----3----1----3----|--0-0-0-0-----------------|



--------------------------|--------------------------|----------------------|
--------------------------|--------------------------|----------------------|
--------------------------|--------------------------|----------------------|
----------3-3-3-3-6-6-6-6-|----------2-2-2-2-5-5-5-5-|----------------------|
--------------------------|--------------------------|--6----5----3----5----|
--0-0-0-0-----------------|--0-0-0-0-----------------|--4----3----1----3----|



--------------------------|--------------------------|
--------------------------|--------------------------|
--------------------------|--------------------------|
--------------------------|--------------------------|
--2--2--2--2--2--2--2--2--|--------------------------|
--0--0--0--0--0--0--0--0--|--0--1--3--4--0--1--3--4--|
  .  .  .  .  .  .  .  .


--------------------------|--------------------------|
--------------------------|--------------------------|
--------------------------|--------------------------|
--------------------------|--------------------------|
--2--2--2--2--2--2--2--2--|--------------------------|
--0--0--0--0--0--0--0--0--|--0--1--3--4--0--1--3--4--|
  .  .  .  .  .  .  .  .


--------------------------|--------------------------|
--------------------------|--------------------------|
--------------------------|--------------------------|
--------------------------|--------------------------|
--2--2--2--2--2--2--2--2--|--------------------------|
--0--0--0--0--0--0--0--0--|--0--1--3--4--0--1--3--4--|
  .  .  .  .  .  .  .  .


--------------------------|--------------------------|
--------------------------|--------------------------|
--------------------------|--9--9--9--9--9--9--9--9--|
--------------------------|--9--9--9--9--9--9--9--9--|
--2--2--2--2--2--2--2--2--|--7--7--7--7--7--7--7--7--|
--0--0--0--0--0--0--0--0--|--------------------------|
  .  .  .  .  .  .  .  .


--------------------------|--------------------------|
--------------------------|--------------------------|
--------------------------|--------------------------|
--------------------------|--------------------------|
--2--2--3--2--3/-6--2--2--|--2--2--3/-6--2--2--3/-6--|
--0--0--1--0--1/-4--0--0--|--0--0--1/-4--0--0--1/-4--|
  .  .     .        .  .     .  .        .  .


--------------------------|--------------------------|
--------------------------|--------------------------|
--------------------------|--------------------------|
--------------------------|--------------------------|
--2--2--3--2--3/-6--2--2--|--2--2--3/-6--2--2--3/-6--|
--0--0--1--0--1/-4--0--0--|--0--0--1/-4--0--0--1/-4--|
  .  .     .        .  .     .  .        .  .


--------------------------|--------------------------|
--------------------------|--------------------------|
--------------------------|--------------------------|
--------------------------|--------------------------|
--2--2--3--2--3/-6--2--2--|--2--2--3/-6--2--2--3/-6--|
--0--0--1--0--1/-4--0--0--|--0--0--1/-4--0--0--1/-4--|
  .  .     .        .  .     .  .        .  .


--------------------------|--------------------------|-------------------|
--------------------------|--------------------------|-------------------|
--------------------------|--9--9--9--9--9--9--9--9--|-------------------|
--------------------------|--9--9--9--9--9--9--9--9--|--2----------------|
--2--2--3--2--3/-6--2--2--|--7--7--7--7--7--7--7--7--|--2----------------|
--0--0--1--0--1/-4--0--0--|--------------------------|--0----------------|
  .  .     .        .  .


-------------------|-------------------|----------------------|
-------------------|-------------------|----------------------|
-------------------|-------------------|----------------------|
--------------3----|--7----------------|--3--------3--5--3----|
--------------3----|--7----------------|--3--------3--5--3----|
--------------1----|--5----------------|--1--------1--3--1----|



-------------------|-------------------|-------------------|
-------------------|-------------------|-------------------|
-------------------|-------------------|-------------------|
--2----------------|--------------3----|--7----------------|
--2----------------|--------------3----|--7----------------|
--0----------------|--------------1----|--5----------------|



----------------------|----------------------------------|
----------------------|----------------------------------|
----------------------|----------------------------------|
--3--------3--5--3----|----------------------------------|
--3--------3--5--3----|----------------------------------|
--1--------1--3--1----|--0-0-0-0-0-0-0-0-0-0-0-0-0-0-0-0-|
                         . . . . . . . . . . . . . . . .


----------------------------------|----------------------------------|
----------------------------------|----------------------------------|
----------------------------------|----------------------------------|
----------------------------------|----------------------------------|
----------------------------------|----------------------------------|
--0-0-0-0-0-0-0-0-0-0-0-0-1-1-1-1-|--5-5-5-5-5-5-5-5-5-5-5-5-5-5-5-5-|
  . . . . . . . . . . . . . . . .    . . . . . . . . . . . . . . . .


----------------------------------|----------------------------------|
----------------------------------|----------------------------------|
----------------------------------|----------------------------------|
----------------------------------|----------------------------------|
----------------------------------|----------------------------------|
--1-1-1-1-1-1-1-1-1-1-3-3-1-1-1-1-|--0-0-0-0-0-0-0-0-0-0-0-0-0-0-0-0-|
  . . . . . . . . . . . . . . . .    . . . . . . . . . . . . . . . .


----------------------------------|----------------------------------|
----------------------------------|----------------------------------|
----------------------------------|----------------------------------|
----------------------------------|----------------------------------|
----------------------------------|----------------------------------|
--0-0-0-0-0-0-0-0-0-0-0-0-1-1-1-1-|--5-5-5-5-5-5-5-5-5-5-5-5-5-5-5-5-|
  . . . . . . . . . . . . . . . .    . . . . . . . . . . . . . . . .


----------------------------------|----------------------------|
----------------------------------|----------------------------|
----------------------------------|----------------------------|
----------------------------------|--2-------------------------|
----------------------------------|--2-------------------------|
--1-1-1-1-1-1-1-1-1-1-3-3-1-1-1-1-|--0----0-0-0--0-0-0--0-0-0--|
  . . . . . . . . . . . . . . . .         . . .  . . .  . . .


----------------------------|----------------------------|
----------------------------|----------------------------|
----------------------------|----------------------------|
-----------------------3----|--7-------------------------|
-----------------------3----|--7-------------------------|
--0-0-0--0-0-0--0-0-0--1----|--5----5-5-5--5-5-5--5-5-5--|
  . . .  . . .  . . .               . . .  . . .  . . .


-------------------------|----------------------------|
-------------------------|----------------------------|
-------------------------|----------------------------|
--3----------------------|--2-------------------------|
--3-----------3--5--3----|--2-------------------------|
--1----1-1-1--1--3--1----|--0----0-0-0--0-0-0--0-0-0--|
       . . .  .  .  .            . . .  . . .  . . .


----------------------------|----------------------------|
----------------------------|----------------------------|
----------------------------|----------------------------|
-----------------------3----|--7-------------------------|
-----------------------3----|--7-------------------------|
--0-0-0--0-0-0--0-0-0--1----|--5----5-5-5--5-5-5--5-5-5--|
  . . .  . . .  . . .               . . .  . . .  . . .


-------------------------|----------------------------|
-------------------------|----------------------------|
-------------------------|----------------------------|
--3----------------------|--2-------------------------|
--3-----------3--5--3----|--2-------------------------|
--1----1-1-1--1--3--1----|--0----0-0-0--0-0-0--0-0-0--|
       . . .  .  .  .            . . .  . . .  . . .


----------------------------|----------------------------|
----------------------------|----------------------------|
----------------------------|----------------------------|
-----------------------3----|--7-------------------------|
-----------------------3----|--7-------------------------|
--0-0-0--0-0-0--0-0-0--1----|--5----5-5-5--5-5-5--5-5-5--|
  . . .  . . .  . . .               . . .  . . .  . . .


-------------------------|----------------------------|
-------------------------|----------------------------|
-------------------------|----------------------------|
--3----------------------|--2-------------------------|
--3-----------3--5--3----|--2-------------------------|
--1----1-1-1--1--3--1----|--0----0-0-0--0-0-0--0-0-0--|
       . . .  .  .  .            . . .  . . .  . . .


----------------------------|----------------------------|
----------------------------|----------------------------|
----------------------------|----------------------------|
-----------------------3----|--7-------------------------|
-----------------------3----|--7-------------------------|
--0-0-0--0-0-0--0-0-0--1----|--5----5-5-5--5-5-5--5-5-5--|
  . . .  . . .  . . .               . . .  . . .  . . .


-------------------------|-------------------||
-------------------------|-------------------||
-------------------------|-------------------||
--3----------------------|--2----------------||
--3-----------3--5--3----|--2----------------||
--1----1-1-1--1--3--1----|--0----------------||
       . . .  .  .  .
		
Tap to rate this tab
# A B C D E F G H I J K L M N O P Q R S T U V W X Y Z