Song name
# A B C D E F G H I J K L M N O P Q R S T U V W X Y Z

Misery Index - The Spectator tab

I know it's not perfect, i just did this in like half an hour

Tuning (Low To High) DGCFAD

Intro/Verse
D --------------------------------------------------------------------|
A --------------------------------------------------------------------|
F --------------------------------------------------------------------|
C ------------------------4---4-4-4-------------------7-7-7-5---5-5-5-|
G 2-----------------4-4-4-2---2-2-2-2-----------------5-5-5-3---3-3-3-|
D 0---0-0-0-0-0-0-0-2-2-2-----------0---0-0-0-0-0-0-0-----------------|

D ------------------------------------------------------------------|
A ------------------------------------------------------------------|
F ------------------------------------------------------------------|
C ------------------------4---4-4-4---------------------------------|
G 2-----------------4-4-4-2---2-2-2-5-5-5-5-5-5-5-5-7-7-7-7-7-7-7-7-|
D 0---0-0-0-0-0-0-0-2-2-2-----------3-3-3-3-3-3-3-3-5-5-5-5-5-5-5-5-|

Chorus (brackets are played 3rd and 4th time)
D ------------------------------------------------------|
A ------------------------------------------------------|
F(4)---(4)---(7)---(7)-(7)-(4)---(4)--------------------|
C 4-----4-----7-----7---7---4-----4-----5-5-5-5-7-7-7-7-|
G 2-----2-----5-----5---5---2-----2-----5-5-5-5-7-7-7-7-|
D --000---000---000---0---0---000---000-3-3-3-3-5-5-5-5-|

Part After Chorus
D ------------------------------------------------------------------|
A ------------------------------------------------------------------|
F ------------------------------------------------------------------|
C 2---------------7-7-7-4-5-4-2-4-2-----------------7-7-7-4-5-4-2-4-|
G 2---------------7-7-7-4-5-4-2-4-2-----------------7-7-7-4-5-4-2-4-|
D 0---0-0-0-0-0-0-5-5-5-2-3-2-0-2-0---0-0-0-0-0-0-0-5-5-5-2-3-2-0-2-|

Rest Of Song Is Based on these 2 riffs, its just about switching between the 2 really

D ----------------------------------------------------------------|
A ----------------------------------------------------------------|
F ----------------------------------------------------------------|
C --------------------------------5-4-4-4-5-4-4-4-5-4-4-4-5-4-4-4-|
G 5-2-2-2-5-2-2-2-5-2-2-2-5-2-2-2-3-2-2-2-3-2-2-2-3-2-2-2-3-2-2-2-|
D 3-0-0-0-3-0-0-0-3-0-0-0-3-0-0-0---------------------------------|

Its basically right-ish at least.

\m/ zw
Tap to rate this tab
# A B C D E F G H I J K L M N O P Q R S T U V W X Y Z