Guitaretab - guitar tabs
Song name
# A B C D E F G H I J K L M N O P Q R S T U V W X Y Z

Misery Loves Co - Happy tab

#----------------------------------PLEASE NOTE---------------------------------#
#This file is the author's own work and represents their interpretation of the #
#song. You may only use this file for private study, scholarship, or research. #
#------------------------------------------------------------------------------#

HAPPY
"Misery Loves Co."
from the self titled album
transcribed by Brendan

Dropped ĎDí Tuning
[ Tab from: http://www.guitaretab.com/m/misery-loves-co/12584.html ]
MAIN RIFF
E||---------------------------------||
B||---------------------------------||
G||---------------------------------||
D||------0------------3p2--3p2------||
A||---------0--0h2------------------||
D||--0------------------------------||

PRE-CHORUS RIFF
E||----------------------------------||
B||----------------------------------||
G||----------------------------------||
D||----------------------------------||
A||--2--3--0-------2--3--7--1--0-----||
D||--2--3--0-------2--3--7--1--0-----||

Thatís it!

Brendan@iaccess.com.au
Related for Happy tab