Guitaretab - guitar tabs
Song name
# A B C D E F G H I J K L M N O P Q R S T U V W X Y Z

Misery Loves Co - Private Hell tab

#----------------------------------PLEASE NOTE---------------------------------#
#This file is the author's own work and represents their interpretation of the #
#song. You may only use this file for private study, scholarship, or research. #
#------------------------------------------------------------------------------#

PRIVATE HELL
"Misery Loves Co."
from the self titled album
transcribed by Brendan

Dropped D Tuning

MAIN RIFF
E||---------|-----------------------------------------||
B||---------|-----------------------------------------||
G||---------|-----------------------------------------||
D||---------|-----------------------------------------||
A||--4--3---|--1--2--1--1-1-1-1---1---1-1---4--3------||
D||--4--3---|--1--2--2--1-1-1-1---1---1-1---4--3------||

PRE-CHORUS RIFF
E||------------------------------------||
B||------------------------------------||
G||------------------------------------||
D||------------------------------------||
A||--3p2--5p4--3p2--5--4-4-4---2--2----||
D||--3p2--5p4--3p2--5--4-4-4---2--2----||
[ Tab from: http://www.guitaretab.com/m/misery-loves-co/12586.html ]
CHORUS RIFF	*Pick Scrape
E||------------------------------------------------------------------------||
B||------------------------------------------------------------------------||
G||------------------------------------------------------------------------||
D||-----------------------*------------------------------------------------||
A||--3---4-----4-4----6---/---3---4-----4-4----2-1-2-1-2-1-2-1-2-1-1-1-----||
D||--3---4-----4-4----6---/---3---4-----4-4----2-1-2-1-2-1-2-1-2-1-1-1-----||

FILL 1 RIFF
E||-------------------------------------------------------------||
B||-------------------------------------------------------------||
G||-------------------------------------------------------------||
D||-----------3t4-----------3t4-----------3t4-------------------||
A||--1-1-1-1-------1-1-1-1-------1-1-1-1-------1-1-1-1----3-----||
D||--1-1-1-1-------1-1-1-1-------1-1-1-1-------1-1-1-1----3-----||

FILL 2 RIFF
E||--------------------------------------------------------||
B||--------------------------------------------------------||
G||--------------------------------------------------------||
D||--------------------------------------------------------||
A||--3-3--1--1--1-1-1--1-1-1--1-1-1--1--1--1----2----4-----||
D||--3-3--1--1--1-1-1--1-1-1--1-1-1--1--1--1----2----4-----||

Brendan@iaccess.com.au
Related for Private Hell tab