Song name
# A B C D E F G H I J K L M N O P Q R S T U V W X Y Z

Misery Signals - Worlds And Dreams tab

-------------------------------------------------------------------------------
			     Worlds & Dreams - Misery Signals
-------------------------------------------------------------------------------
This isn't my tab, I just did a rough translation of Adtthosa's Power Tab version.

Tuning: Drop D

Guitar One:
e|------------------------------------------------------------15p12----15p12-|
B|13p12-----13p12-----13p12-----13p12-----13p12-----13p12--------------------|
G|---------------------------------------------------------------------------|
D|---------------------------------------------------------------------------|
A|------0-0-------0-0-------0-0-------0-0-------0-0-------0-0-------0-0------|
E|---------------------------------------------------------------------------|

e|------------------------------------------------------------15p12----15p12-|
B|13p12-----13p12-----13p12-----13p12-----13p12-----13p12--------------------|
G|---------------------------------------------------------------------------|
D|---------------------------------------------------------------------------|
A|------0-0-------0-0-------0-0-------0-0-------0-0-------0-0-------0-0------|
E|---------------------------------------------------------------------------|

e|---------------------------------------------------------------------------|
B|-------5-----------6-----------8-8-8-8-----8-------------------------------|
G|-------4-----------7-----------9-9-9-9------(9)--(10)-(9)------------------|
D|-------5-----------7-----------9-9-9-9-------------------------------------|
A|3--3-3------5--5-5---------------------------------------------------------|
E|3--3-3------5--5-5---------------------------------------------------------|

e|---------------------------------------------------------------------------|
B|--------------------------------------------5------------6-----------------|
G|-9-10-9-------------------------------------4------------7-----------------|
D|--------10-12-10-9-10-12-10-9---------------5------------7-----------------|
A|------------------------------10-----3--3-3-------5--5-5-------------------|
E|-------------------------------------3--3-3-------5--5-5-------------------|

e|---------------------------------------------------------------------------|
B|8-8-8-8-----8--------------------------------------------------------------|
G|9-9-9-9------(9)--(10)-(9)-----9-10-9------------------9-10-12-------------|
D|9-9-9-9-------------------------------10-12-10-9-10-12---------------------|
A|---------------------------------------------------------------------------|
E|---------------------------------------------------------------------------|

e|--------12-----------------12---------------------17-------15-------13-----|
B|---8-------8---------10-------10------------13-------13-------13-------13--|
G|10---10------10---12----12-------12-----14-----14-------14-------14------14|
D|---------------------------------------------------------------------------|
A|---------------------------------------------------------------------------|
E|---------------------------------------------------------------------------|

e|--------12-----------------12--------------------17--------15-------13-----|
B|---8-------8---------10-------10-----------13-------13--------13-------13--|
G|10---10------10---12----12-------12-----14----14-------14--------14------14|
D|---------------------------------------------------------------------------|
A|---------------------------------------------------------------------------|
E|---------------------------------------------------------------------------|

e|---------------------------------------------------------------------------|
B|---------8----------------8------------------------------------------------|
G|-----------9----------------9----------------------------------------------|
D|7-9--7-7---------7-9--7-7--------------------------------------------------|
A|---------------------------------------------------------------------------|
E|---------------------------------------------------------------------------|

e|------------------------------------------------------------15p12-----15p12|
B|13p12-----13p12-----13p12-----13p12-----13p12-----13p12--------------------|
G|---------------------------------------------------------------------------|
D|---------------------------------------------------------------------------|
A|------0-0-------0-0-------0-0-------0-0-------0-0-------0-0--------0-0-----|
E|---------------------------------------------------------------------------|

Guitar Two:
e|----------15--------------15-------------15--------------15p12-12----------|
B|13---------------13-------------13-------------13--------------------------|
G|---12--12----------12--12---------12--12----------12--12-------------------|
D|---14--------------14-------------14--------------14-----------------------|
A|---------------------------------------------------------------------------|
E|---------------------------------------------------------------------------|

e|----------15--------------15-------------15--------------15-12-12----------|
B|13---------------13-------------13-------------13--------------------------|
G|---12--12----------12--12---------12--12----------12--12-------------------|x2
D|---14--------------14-------------14--------------14-----------------------|
A|---------------------------------------------------------------------------|
E|---------------------------------------------------------------------------|

e|-------------------------------17---15-13-12--13---------------17----------|
B|13---13-13-----17---17-17------------------------12---13-------------------|
G|14---14-14--x--17---17-17--x-----------------------------12-12-------------|
D|14---14-14--x--17---17-17--x-----------------------------14----------------|
A|---------------------------------------------------------------------------|
E|---------------------------------------------------------------------------|

e|15-13-12--------------------------------------------17---15-13-12--13------|
B|---------15-13-12-----13---13-13-----17---17-17-----------------------12---|
G|----------------------14---14-14--x--17---17-17--x-------------------------|
D|----------------------14---14-14--x--17---17-17--x-------------------------|
A|---------------------------------------------------------------------------|
E|---------------------------------------------------------------------------|

e|---------17--(15)-15-13-12-------------------------------------------------|
B|13--------------------------15-13------------------------------------------|
G|---12-12-------------------------------------------------------------------|
D|---14----------------------------------------------------------------------|
A|---------------------------------------------------------------------------|
E|---------------------------------------------------------------------------|

e|13-12--13-12--13-12----------12--------------------------------------------|
B|13-13--13-13--13-13-------------------15-13-12-13-12----------------12-----|
G|-----------------------12-14----12-14----------------14p12-14---------12-14|x4
D|--------------------------------------------------------------14-15--------|
A|---------------------------------------------------------------------------|
E|---------------------------------------------------------------------------|

e|------------15-----------------15-----------------15-----------------------|
B|13-----------------13-----------------13-----------------------------------|
G|----12--12-------------12--12-------------12--12---------------------------|
D|----14------19---------14------19---------14------19-----------------------|
A|19--17--17---------19--17--17---------19--17--17---------------------------|
E|---------------------------------------------------------------------------|

e|------------15-------------------------------------------------------------|
B|13-------------------------------------------------------------------------|
G|----12--12-----------------------------------------------------------------|
D|----14------19----14~~~----------------------------------------------------|
A|19--17--17-----------------------------------------------------------------|
E|---------------------------------------------------------------------------|

Guitar  Three:
e|---------------------------------------------------------------------------|
B|5---5-5-5-5-5---5-5-5-5-----6---6-6-6-6-6---6-6-6-6------------------------|
G|5---5-5-5-5-5---5-5-5-5-----7---7-7-7-7-7---7-7-7-7------------------------|
D|3---3-3-3-3-3---3-3-3-3-----5---5-5-5-5-5---5-5-5-5------------------------|
A|3---3-3-3-3-3---3-3-3-3-----5---5-5-5-5-5---5-5-5-5------------------------|
E|3---3-3-3-3-3---3-3-3-3-----5---5-5-5-5-5---5-5-5-5------------------------|

e|---------------------------------------------------------------------------|
B|8---8-8-8-8-8---8-8-8-8----------------------------------------------------|
G|9---9-9-9-9-9---9-9-9-9----------------------------------------------------|
D|7---7-7-7-7-7---7-7-7-7----------------------------------------------------|
A|7---7-7-7-7-7---7-7-7-7----------------------------------------------------|
E|7---7-7-7-7-7---7-7-7-7----------------------------------------------------|

Figure out the rhythm repeat those chords throughout the song, then play this at the 
melodic break part around the end.

e|---------------------------------------------------------------------------|
B|----5-5--5-----------------------------------------------------------------|
G|----5-5--5-----------------------------------------------------------------|
D|3---3-3--3-----------------------------------------------------------------|
A|3---3-3--3-----------------------------------------------------------------|
E|3---3-3--3-----------------------------------------------------------------|

| /  slide up
| \  slide down
| h  hammer-on
| p  pull-off
| ~  vibrato
| +  harmonic
| x  Mute note
===============================================================================
Tap to rate this tab
# A B C D E F G H I J K L M N O P Q R S T U V W X Y Z