Song name
# A B C D E F G H I J K L M N O P Q R S T U V W X Y Z

Misery Signals - Ebb And Flow tab

Band:  Misery Signals
Song:  Ebb and Flow
Album: Controller

Tuning: Drop C [C,G,C,F,A,D]

This is probably my second favourite Misery Signals song, right
after Worlds and Dreams, which I'm pretty sure I'll tab out later
today... I'm doing this because a) They're both awesome songs,
and b) I want to share them with you.
So please, vote on my tabs, it lets me know what you actually
think of them.


Intro

GUITAR ONE
(Fade in)

D|----------------------------------------|
A|----------------------------------------|
F|----------------------------------------|
C|-0~~~~~~~~~~~~~~~~~~~~~~~~~~~~~~~~~~~~~-|
G|-0~~~~~~~~~~~~~~~~~~~~~~~~~~~~~~~~~~~~~-|
C|-0~~~~~~~~~~~~~~~~~~~~~~~~~~~~~~~~~~~~~-|

GUITAR TWO
I think there's a phaser or a wah on this, to give it that
"fade-iny" sound that they use here.

D|-----------------------------------------------------|
A|-----------------------------------------------------|
F|---------10\9---------10\9---------10\9---------10\9-|
C|-0h10h12------0h10h12------0h10h12------0h10h12------|x2
G|-----------------------------------------------------|
C|-----------------------------------------------------|


Chorus x4

BOTH GUITARS

D|--------------------------------------------------------|
A|--------------------------------------------------------|
F|-------------10-10---9-10-9--------------10-10---9-10-9-|
C|-0--00-0-----8--8--8--------8--88-8------8--8--8--------|
G|-0--00-0-7/8----------------8--88-8-10\8----------------|
C|-0--00-0--------------------8--88-8---------------------|
PM    ..          .              ..              .


Verse x8 (I think...)

GUITAR TWO

D|-----------------------------------------------------|
A|-----------------------------------------------------|
F|---------10\9---------10\9---------10\9---------10\9-|
C|-0h10h12------0h10h12------0h10h12------0h10h12------|x2
G|-----------------------------------------------------|
C|-----------------------------------------------------|


Post-Verse

GUITAR ONE
It's quiet, but it's there.

D|----------------------------------------|
A|----------------------------------------|
F|----------------------------------------|
C|----------------------------------------|
G|----------------------------------------|
C|-0~~~~~~~~~~~~~~~~~~~~~~~~~~~~~~~~~~~~~-|


Verse 2

GUITAR ONE

D|--------------------------------------------------------|
A|--------------------------------------------------------|
F|-------------10-10---9-10-9--------------10-10---9-10-9-|
C|-0--00-0-----8--8--8--------8--88-8------8--8--8--------|
G|-0--00-0-7/8----------------8--88-8-10\8----------------|
C|-0--00-0--------------------8--88-8---------------------|
PM    ..          .              ..              .

GUITAR TWO

D|--------------------------------------------------------|
A|--------------------------------------------------------|
F|-14~~~~~~~-14b(15)r14~\12~~~~~~-10~~~~~~~~~~~~~~9~~~~~~-|
C|--------------------------------------------------------|
G|--------------------------------------------------------|
C|--------------------------------------------------------|


Chorus x2

BOTH GUITARS

D|--------------------------------------------------------|
A|--------------------------------------------------------|
F|-------------10-10---9-10-9--------------10-10---9-10-9-|
C|-0--00-0-----8--8--8--------8--88-8------8--8--8--------|
G|-0--00-0-7/8----------------8--88-8-10\8----------------|
C|-0--00-0--------------------8--88-8---------------------|
PM    ..          .              ..              .


Breakdown A

GUITAR ONE x8

D|----------------------------------|
A|----------------------------------|
F|----------------------------------|
C|-00-000-00-0000-0000-00-000-00-00-|
G|-00-000-00-0000-0000-00-000-00-00-|
C|-00-000-00-0000-0000-00-000-00-00-|
PM .. ... .. .... .... .. ... .. ..

GUITAR TWO x4

D|---------------------------------------------------------|
A|-10101010101010101010101010-1313131313131313131313131313-|
F|---------------------------------------------------------|
C|---------------------------------------------------------|
G|---------------------------------------------------------|
C|---------------------------------------------------------|


Breakdown B x4

BOTH GUITARS

D|----------------------------------|
A|----------------------------------|
F|----------------------------------|
C|-00-000-00-0000-0000-00-000-00-00-|
G|-00-000-00-0000-0000-00-000-00-00-|
C|-00-000-00-0000-0000-00-000-00-00-|
PM .. ... .. .... .... .. ... .. ..


Pre-Outro x4

GUITAR ONE

D|---------------------------------------------|
A|---------------------------------------------|
F|---------------------------------------------|
C|-88888888-88888888-00000000-1010101010101010-|
G|-88888888-88888888-00000000-1010101010101010-|
C|-88888888-88888888-00000000-1010101010101010-|

Couldn't work out GUITAR TWO...


Outro x8

GUITAR ONE

D|---------------------------------------------|
A|---------------------------------------------|
F|---------------------------------------------|
C|-88888888-88888888-00000000-1010101010101010-|
G|-88888888-88888888-00000000-1010101010101010-|
C|-88888888-88888888-00000000-1010101010101010-|

GUITAR TWO

D|-1313131313131313-1212121212121212-----------------------------------|
A|-----------------------------------1313131313131313------------------|
F|----------------------------------------------------/10/121212121212-|
C|---------------------------------------------------------------------|
G|---------------------------------------------------------------------|
C|---------------------------------------------------------------------|


Finish x4

BOTH GUITARS

D|----------------------------------|
A|----------------------------------|
F|----------------------------------|
C|-00-000-00-0000-0000-00-000-00-00-|
G|-00-000-00-0000-0000-00-000-00-00-|
C|-00-000-00-0000-0000-00-000-00-00-|
PM .. ... .. .... .... .. ... .. ..
Tap to rate this tab
 
# A B C D E F G H I J K L M N O P Q R S T U V W X Y Z