Song name
# A B C D E F G H I J K L M N O P Q R S T U V W X Y Z

Misery Signals - Lie Captive tab

#----------------------------------PLEASE NOTE---------------------------------#
#This file is the author's own work and represents their interpretation of the #
#song. You may only use this file for private study, scholarship, or research. #
#------------------------------------------------------------------------------##

                                   LIE CAPTIVE
                          As recorded by Misery Signals
                     (From the 2003 Album MISERY SIGNALS EP)

Words and Music by Misery Signals
Arranged by Misery Signals
Transcribed by jonathanonfire

Gtr I (C G C F A D) - 'Untitled'
Gtr II (C G C F A D) - 'Untitled'
Gtr III (C G C F A D) - 'Untitled'

 Intro
  Dancefight Q=228
  BbD5G5D5A5D5F5D5  BbD5G5D5A5D5F5D5  BbD5G5D5A5D5F5D5  BbD5G5D5A5D5F5D5
 4/4
  Gtrs I, II
  E E E E E E E E   E E E E E E E E   E E E E E E E E   E E E E E E E E
|-----------------|-----------------|-----------------|-----------------|
|-----------------|-----------------|-----------------|-----------------|
|-----------------|-----------------|-----------------|-----------------|
|-----------------|-----------------|-----------------|-----------------|
|-8p0-5p0-7p0-3p0-|-8p0-5p0-7p0-3p0-|-8p0-5p0-7p0-3p0-|-8p0-5p0-7p0-3p0-|
|-8p0-5p0-7p0-3p0-|-8p0-5p0-7p0-3p0-|-8p0-5p0-7p0-3p0-|-8p0-5p0-7p0-3p0-|


  Bb5D5G5D5A5D5F5D5  Bb5 D5G5D5A5D5F5D5
  Gtr I
   W                  +W
|------------------|-------------------|
|-10---------------|-(10)--------------|
|--7---------------|--(7)--------------|
|--7---------------|--(7)--------------|
|------------------|-------------------|
|------------------|-------------------|
|
| Gtr II
|  PM-----------------------------------
|  E E E E E E E E     E E E E E E E E
|------------------|-------------------|
|------------------|-------------------|
|------------------|-------------------|
|------------------|-------------------|
|--8p0-5p0-7p0-3p0-|---8p0-5p0-7p0-3p0-|
|--8p0-5p0-7p0-3p0-|---8p0-5p0-7p0-3p0-|


  Bb5D5G5D5A5D5F5D5  Bb5 D5G5D5A5D5F5D5
   W                  +W                 E H..
|------------------|-------------------|----------||
|-10---------------|-(10)--------------|----------||
|--7---------------|--(7)--------------|----------||
|--8---------------|--(8)--------------|----------||
|------------------|-------------------|-0--------||
|------------------|-------------------|-0--------||
|
|------------------------------------|
|  E E E E E E E E     E E E E E E E E   E H..
|------------------|-------------------|----------||
|------------------|-------------------|----------||
|------------------|-------------------|----------||
|------------------|-------------------|----------||
|--8p0-5p0-7p0-3p0-|---8p0-5p0-7p0-3p0-|-0--------||
|--8p0-5p0-7p0-3p0-|---8p0-5p0-7p0-3p0-|-0--------||


 "Woven captive.."
  Bb5 G5  A5        Bb5 G5  A5        Bb5     G5  A5  F5    D5
                                                           3/4
  Gtrs I, II
    PM  PM  PM--|     PM  PM  PM--|     PM--|   PM  PM  PM
                                        |-3-|
  E E E E E E E E   E E E E E E E E   E S S S E E E E E E   H.
|-----------------|-----------------|---------------------|-------|
|-----------------|-----------------|---------------------|-------|
|-----------------|-----------------|---------------------|-------|
|-----------------|-----------------|---------------------|-------|
|-8---5---7-------|-8---5---7-------|-8-------5---7---3---|-0-----|
|-8-0-5-0-7-0-0-0-|-8-0-5-0-7-0-0-0-|-8-0-0-0-5-0-7-0-3-0-|-0-----|


  D5
  +H.        +H.        +H.        E H    E
|----------|----------|----------|----------||
|----------|----------|----------|----------||
|----------|----------|----------|----------||
|----------|----------|----------|----------||
|-(0)------|-(0)------|-(0)------|-0--------||
|-(0)------|-(0)------|-(0)------|-0--------||


 "Keep still, keep quiet.."
  Punch & Kick Q=245
  A5  D5  C5  A5
 4/4
  Gtr I
      PM|           PM|       PM|
   Q  E E  Q   Q    E E  E  E E E  E  E
|-----------------|---------------------|
|-----------------|---------------------|
|-14------17--14--|---------------------|
|--x-------x---x--|-----10-10-----10-10-|
|-12--0-0-15--12--|-7-7--7--7-7-7--7--7-|
|-----0-0---------|-7-7--7--7-7-7--7--7-|
|
| Gtr II
|     PM|           PM|       PM|
|  Q  E E  Q   Q    E E  E  E E E  E  E
|-----------------|---------------------|
|-----------------|---------------------|
|-----------------|---------------------|
|-----------------|------7--7------7--7-|
|--7--0-0-10---7--|-7-7--7--7-7-7--7--7-|
|--7--0-0-10---7--|-7-7--7--7-7-7--7--7-|


      D5  C5  A5
      PM|           PM|       PM|
   Q  E E  Q   Q    E E  E  E E E  E  E
|-----------------|---------------------|
|-----------------|---------------------|
|-14------17--14--|---------------------|
|--x-------x---x--|-----10-10-----10-10-|
|-12--0-0-15--12--|-7-7--7--7-7-7--7--7-|
|-----0-0---------|-7-7--7--7-7-7--7--7-|
|
|     PM|           PM|       PM|
|  Q  E E  Q   Q    E E  E  E E E  E  E
|-----------------|---------------------|
|-----------------|---------------------|
|-----------------|---------------------|
|-----------------|------7--7------7--7-|
|--7--0-0-10---7--|-7-7--7--7-7-7--7--7-|
|--7--0-0-10---7--|-7-7--7--7-7-7--7--7-|


  A5  D5  Bb5 A5
      PM|           PM|       PM|
   Q  E E  Q   Q    E E  E  E E E  E  E
|-----------------|---------------------|
|-----------------|---------------------|
|-14------15--14--|---------------------|
|--x-------x---x--|-----10-10-----10-10-|
|-12--0-0-13--12--|-7-7--7--7-7-7--7--7-|
|-----0-0---------|-7-7--7--7-7-7--7--7-|
|
|     PM|           PM|       PM|
|  Q  E E  Q   Q    E E  E  E E E  E  E
|-----------------|---------------------|
|-----------------|---------------------|
|-----------------|---------------------|
|-----------------|------7--7------7--7-|
|--7--0-0--8---7--|-7-7--7--7-7-7--7--7-|
|--7--0-0--8---7--|-7-7--7--7-7-7--7--7-|


  N.C.                    A5
                          PM|       PM|
   E  E E E  E  E  E  E   E E  E  E E E  E  E
|-----------------------|---------------------||
|-----------------------|---------------------||
|-----------------------|---------------------||
|-----------------------|-----10-10-----10-10-||
|-----------------------|-7-7--7--7-7-7--7--7-||
|-12-10-7-8-10-12-12-14-|-7-7--7--7-7-7--7--7-||
|
|                         PM|       PM|
|  E  E E E  E  E  E  E   E E  E  E E E  E  E
|-----------------------|---------------------||
|-----------------------|---------------------||
|-----------------------|---------------------||
|-----------------------|------7--7------7--7-||
|-----------------------|-7-7--7--7-7-7--7--7-||
|--8--7-3-5--7--8--8-10-|-7-7--7--7-7-7--7--7-||


 "I feel you like.."
  N.C.
   E  E  E  E  E  E  E  E   E E E E E E E E
|-------------------------|-----------------|
|-------------------------|-----------------|
|-10-10-10-10-10-10-10-10-|-9-9-9-9-9-9-9-9-|
|--x--x--x--x--x--x--x--x-|-x-x-x-x-x-x-x-x-|
|--8--8--8--8--8--8--8--8-|-7-7-7-7-7-7-7-7-|
|-------------------------|-----------------|
|
|  E  E  E  E  E  E  E  E   E E E E E E E E
|-------------------------|-----------------|
|-------------------------|-----------------|
|--7--7--7--7--7--7--7--7-|-5-5-5-5-5-5-5-5-|
|--x--x--x--x--x--x--x--x-|-x-x-x-x-x-x-x-x-|
|--5--5--5--5--5--5--5--5-|-3-3-3-3-3-3-3-3-|
|-------------------------|-----------------|


  E E E E E E E E    E  E  E  E  E  E  E  E
|-----------------|-------------------------|
|-----------------|-------------------------|
|-7-7-7-7-7-7-7-7-|--5--5--5--5--5--5--5--5-|
|-x-x-x-x-x-x-x-x-|--x--x--x--x--x--x--x--x-|
|-5-5-5-5-5-5-5-5-|--3--3--3--3--3--3--3--3-|
|-----------------|-------------------------|
|
| E E E E E E E E    E  E  E  E  E  E  E  E
|-----------------|-------------------------|
|-----------------|-------------------------|
|-7-7-7-7-7-7-7-7-|-10-10-10-10-10-10-10-10-|
|-x-x-x-x-x-x-x-x-|--x--x--x--x--x--x--x--x-|
|-5-5-5-5-5-5-5-5-|--8--8--8--8--8--8--8--8-|
|-----------------|-------------------------|


  D5        Bb5D5      C5  D5    F5 D5
      PM--|    PM--|       PM--|    PM--|
      |-3-|    |-3-|       |-3-|    |-3-|
   Q  E E E Q  E E E    Q  E E E Q  E E E
|--------------------|--------------------|
|--------------------|--------------------|
|--------------------|--------------------|
|-12--------8--------|-10--------3--------|
|-12--0-0-0-8--0-0-0-|-10--0-0-0-3--0-0-0-|
|-12--0-0-0-8--0-0-0-|-10--0-0-0-3--0-0-0-|
|
|     PM--|    PM--|       PM--|    PM--|
|     |-3-|    |-3-|       |-3-|    |-3-|
|  Q  E E E Q  E E E    Q  E E E Q  E E E
|--------------------|--------------------|
|--------------------|--------------------|
|--------------------|--------------------|
|-12--------8--------|-10--------3--------|
|-12--0-0-0-8--0-0-0-|-10--0-0-0-3--0-0-0-|
|-12--0-0-0-8--0-0-0-|-10--0-0-0-3--0-0-0-|


  D5        Bb5D5      C5  D5    F5 D5      N.C.
      PM--|    PM--|       PM--|    PM--------------------|
      |-3-|    |-3-|       |-3-|    |-3-|
   Q  E E E Q  E E E    Q  E E E Q  E E E   E E E E E E E E
|--------------------|--------------------|-------------------||
|--------------------|--------------------|-------------------||
|--------------------|--------------------|-------------------||
|-12--------8--------|-10--------3--------|-------------------||
|-12--0-0-0-8--0-0-0-|-10--0-0-0-3--0-0-0-|-------------------||
|-12--0-0-0-8--0-0-0-|-10--0-0-0-3--0-0-0-|-8-7-5-7-8-7-5-7---||
|
|     PM--|    PM--|       PM--|    PM--------------------|
|     |-3-|    |-3-|       |-3-|    |-3-|
|  Q  E E E Q  E E E    Q  E E E Q  E E E   E E E E E E E E
|--------------------|--------------------|-------------------||
|--------------------|--------------------|-------------------||
|--------------------|--------------------|-------------------||
|-12--------8--------|-10--------3--------|-------------------||
|-12--0-0-0-8--0-0-0-|-10--0-0-0-3--0-0-0-|-------------------||
|-12--0-0-0-8--0-0-0-|-10--0-0-0-3--0-0-0-|-5-3-5-7-5-3-5-7---||


 "There has never been.."
  N.C.
  E E E E E E E E    E  E  E  E  E  E  E  E
|-----------------|-------------------------|
|-----------------|-------------------------|
|-7-7-7-7-7-7-7-7-|--5--5--5--5--5--5--5--5-|
|-x-x-x-x-x-x-x-x-|--x--x--x--x--x--x--x--x-|
|-5-5-5-5-5-5-5-5-|--3--3--3--3--3--3--3--3-|
|-----------------|-------------------------|
|
| E E E E E E E E    E  E  E  E  E  E  E  E
|-----------------|-------------------------|
|-----------------|-------------------------|
|-7-7-7-7-7-7-7-7-|-10-10-10-10-10-10-10-10-|
|-x-x-x-x-x-x-x-x-|--x--x--x--x--x--x--x--x-|
|-5-5-5-5-5-5-5-5-|--8--8--8--8--8--8--8--8-|
|-----------------|-------------------------|


   E  E  E  E  E  E  E  E    E  E  E  E  E  E  Q
|-------------------------|------------------------|
|-------------------------|------------------------|
|--9--9--9--9--9--9--9--9-|-10--9--7--9------------|
|--x--x--x--x--x--x--x--x-|-------------12-10-12\--|
|--7--7--7--7--7--7--7--7-|------------------------|
|-------------------------|------------------------|
|
|  E  E  E  E  E  E  E  E    E  E  E  E  E  E  Q
|-------------------------|------------------------|
|-------------------------|------------------------|
|-12-12-12-12-12-12-12-12-|-14-12-10-12------------|
|--x--x--x--x--x--x--x--x-|-------------15-14-15\--|
|-10-10-10-10-10-10-10-10-|------------------------|
|-------------------------|------------------------|


    Dsus2          D5                N.C.
    Gtrs I, II
       PM   PM     PM--------|             PM     PM
    Q  E Q  E Q    E E E E E E E E    E  E E  E E E E E
||---------------|-----------------|--------------------|
||o--------------|-----------------|--------------------|
||--9----9----9--|-----------------|-12s10---10s9---9s7-|
||--7----7----7--|-----------------|--x--x----x-x---x-x-|
||o-5----5----5--|-0-0-0-0-0-0-----|-10s=8----8s7---7s5-|
||-----0----0----|-0-0-0-0-0-0-x-x-|-------0------0-----|


  1.
         PM----|     PM--|   PM--|
  E E Q  E E E E   E E E E E E E E
|----------------|--------------------||
|----------------|-------------------o||
|----------------|--------------------||
|-----0----------|--------------------||
|-1-3------------|-7-------8---------o||
|--------0-0-0-0-|---0-0-0---0-0-0----||


  2.
  N.C.
         PM----|     PM--|   PM  PM         PM----|     PM--|   PM  PM
  E E Q  E E E E   E E E E E E E E   E E Q  E E E E   E E E E E E E E
|----------------|-----------------|----------------|-----------------||
|----------------|-----------------|----------------|-----------------||
|----------------|-----------------|----------------|-----------------||
|-----0----------|-----------------|-----0----------|-----------------||
|-1-3------------|-7-------8---7---|-1-3------------|-7-------8---7---||
|--------0-0-0-0-|---0-0-0---0---0-|--------0-0-0-0-|---0-0-0---0---0-||


   "It's just like me to burn.."
    (B(C(Dm)D5        (F) D5  (Em)D5    (B(C(Dm)D5        (F) D5  (EmC5 Bb5
    Gtr I
            PM----|       PM|     PM|           PM----|       PM|     PM|
                                                                   |-3--|
    E E  Q  E E E E    Q  E E  Q  E E   E E  Q  E E E E    Q  E E  Q  Q Q
||------------------|-----------------|-----------------|------------------||
||o-----------------|-----------------|-----------------|-----------------o||
||--3-5--7----------|-10-------9------|-3-5--7----------|-10-------9-------||
||--x-x--x----------|--x-------x------|-x-x--x----------|--x-------x-------||
||o-1-3--5--0-0-0-0-|--8--0-0--7--0-0-|-1-3--5--0-0-0-0-|--8--0-0--7-10-8-o||
||----------0-0-0-0-|-----0-0-----0-0-|---------0-0-0-0-|-----0-0----10-8--||
|
|   Gtr II
|           PM----|       PM|     PM|           PM----|       PM|     PM|
|                                                                  |-3--|
|   E E  Q  E E E E    Q  E E  Q  E E   E E  Q  E E E E    Q  E E  Q  Q Q
||------------------|-----------------|-----------------|------------------||
||o-----------------|-----------------|-----------------|-----------------o||
||--7-9-10----------|-14------12------|-7-9-10----------|-14------12-------||
||--x-x--x----------|--x-------x------|-x-x--x----------|--x-------x-------||
||o-5-7--8--0-0-0-0-|-12--0-0-10--0-0-|-5-7--8--0-0-0-0-|-12--0-0-10-10-8-o||
||----------0-0-0-0-|-----0-0-----0-0-|---------0-0-0-0-|-----0-0----10-8--||


  G5
   T      T      T          T      T
   E E E  E E E  E E    E   E E E  E E E E
|--------------------|---------------------|
|-13-5h8-13-5h8-13-5h|==8--13-5h8-13-5h8p5-|
|--------------------|---------------------|
|--------------------|---------------------|
|--------------------|---------------------|
|--------------------|---------------------|
|
|  W                   +W
|--------------------|---------------------|
|--------------------|---------------------|
|--------------------|---------------------|
|--5-----------------|-(5)-----------------|
|--5-----------------|-(5)-----------------|
|--5-----------------|-(5)-----------------|


  Bb5
   T       T       T          T       T
   E E  E  E E  E  E E    E   E E  E  E E  E E
|----------------------|-----------------------|
|-15-8h10-15-8h10-15-8h|=10--15-8h10-15-8h10p8-|
|----------------------|-----------------------|
|----------------------|-----------------------|
|----------------------|-----------------------|
|----------------------|-----------------------|
|
|  W                     +W
|----------------------|-----------------------|
|----------------------|-----------------------|
|----------------------|-----------------------|
|--8-------------------|-(8)-------------------|
|--8-------------------|-(8)-------------------|
|--8-------------------|-(8)-------------------|


  G5                              F5
   T      T      T          T      T
   E E E  E E E  E E    E   E E E  E E E E
|--------------------|---------------------|
|-13-5h8-13-5h8-13-5h|==8--13-5h8-13-5h8p5-|
|--------------------|---------------------|
|--------------------|---------------------|
|--------------------|---------------------|
|--------------------|---------------------|
|
|  W                   +H          H
|--------------------|---------------------|
|--------------------|---------------------|
|--------------------|---------------------|
|--5-----------------|-(5)---------3-------|
|--5-----------------|-(5)---------3-------|
|--5-----------------|-(5)---------3-------|


  Bb5                    C5
   T       T       T         T       T
   E E  E  E E  E  E E    E  E E  E  E E  E E
|----------------------|----------------------||
|-15-8h10-15-8h10-15-8h|=10-15-8h10-15-8h10p8-||
|----------------------|----------------------||
|----------------------|----------------------||
|----------------------|----------------------||
|----------------------|----------------------||
|
|  W                      W
|----------------------|----------------------||
|----------------------|----------------------||
|----------------------|----------------------||
|--8-------------------|-10-------------------||
|--8-------------------|-10-------------------||
|--8-------------------|-10-------------------||


 "Words into pages.."
  Go crazy, mofo Q=228
  BbD5G5D5A5D5F5D5  BbD5G5D5A5D5F5D5  BbD5G5D5A5D5F5D5  BbD5G5D5A5D5F5D5
  Gtrs I, II
  E E E E E E E E   E E E E E E E E   E E E E E E E E   E E E E E E E E
|-----------------|-----------------|-----------------|-----------------|
|-----------------|-----------------|-----------------|-----------------|
|-----------------|-----------------|-----------------|-----------------|
|-----------------|-----------------|-----------------|-----------------|
|-8p0-5p0-7p0-3p0-|-8p0-5p0-7p0-3p0-|-8p0-5p0-7p0-3p0-|-8p0-5p0-7p0-3p0-|
|-8p0-5p0-7p0-3p0-|-8p0-5p0-7p0-3p0-|-8p0-5p0-7p0-3p0-|-8p0-5p0-7p0-3p0-|


  N.C.
  Gtr I
    PM  PM   PM   PM     PM   PM   PM  PM    PM  PM  PM   PM    PM  PM  PM  PM
  E E E E  E E  E E    E E  E E  E E E E   E E E E E E  E E   E E E E E E E E
|-------------------|--------------------|------------------|-----------------||
|-------------------|--------------------|------------------|-----------------||
|-------------------|--------------------|------------------|-----------------||
|-7-0-8-0-10-0-12-0-|-15-0-10-0-12-0-8-0-|-5-0-7-0-8-0-10-0-|-8-0-5-0-7-0-3-0-||
|-------------------|--------------------|------------------|-----------------||
|-------------------|--------------------|------------------|-----------------||
|
| Gtr II
| PM------------------------------------------------------------------------|
| E E E E  E E  E E    E E  E E  E E E E   E E E E E E  E E   E E E E E E E E
|-------------------|--------------------|------------------|-----------------||
|-------------------|--------------------|------------------|-----------------||
|-------------------|--------------------|------------------|-----------------||
|-------------------|--------------------|------------------|-----------------||
|-------------------|--------------------|------------------|-----------------||
|-8p0-5p0--7p0--3p0-|--8p0--5p0--7p0-3p0-|-8p0-5p0-7p0--3p0-|-8p0-5p0-7p0-3p0-||


 "..in my contempt.."
  D5
 3/4
  Gtrs I, II
  PM-----------------------------------|
  Q  H      Q  H      E E E Q.     E E H
|---------|---------|------------|----------|
|---------|---------|------------|----------|
|---------|---------|------------|----------|
|---------|---------|------------|----------|
|-0-------|-0-------|-0-0-0------|-0-0------|
|-0-------|-0-------|-0-0-0------|-0-0------|


  D5
  PM-----------------------------------------|
  E E E Q.     E E E E Q    E E E Q.     E E H
|------------|------------|------------|----------|
|------------|------------|------------|----------|
|------------|------------|------------|----------|
|------------|------------|------------|----------|
|-0-0-0------|-0-0-0-0----|-0-0-0------|-0-0------|
|-0-0-0------|-0-0-0-0----|-0-0-0------|-0-0------|


  D5
  PM---------------------|
  E E H      Q  H      E E H      +H.
|----------|---------|----------|--------|
|----------|---------|----------|--------|
|----------|---------|----------|--------|
|----------|---------|----------|--------|
|-0-0------|-0-------|-0-0-0----|-(0)----|
|-0-0------|-0-------|-0-0-0----|-(0)----|


  D5
                                  2/4
  +H.        +H.        +H.        E Q.
|----------|----------|----------|--------||
|----------|----------|----------|--------||
|----------|----------|----------|--------||
|----------|----------|----------|--------||
|-(0)------|-(0)------|-(0)------|-0------||
|-(0)------|-(0)------|-(0)------|-0------||


 "Keep still, keep quiet.."
  Keep dancin' Q=245
  A5  D5  C5  A5
 4/4
  Gtr I
      PM|           PM|       PM|
   Q  E E  Q   Q    E E  E  E E E  E  E
|-----------------|---------------------|
|-----------------|---------------------|
|-14------17--14--|---------------------|
|--x-------x---x--|-----10-10-----10-10-|
|-12--0-0-15--12--|-7-7--7--7-7-7--7--7-|
|-----0-0---------|-7-7--7--7-7-7--7--7-|
|
| Gtr II
|     PM|           PM|       PM|
|  Q  E E  Q   Q    E E  E  E E E  E  E
|-----------------|---------------------|
|-----------------|---------------------|
|-----------------|---------------------|
|-----------------|------7--7------7--7-|
|--7--0-0-10---7--|-7-7--7--7-7-7--7--7-|
|--7--0-0-10---7--|-7-7--7--7-7-7--7--7-|


      D5  C5  A5
      PM|           PM|       PM|
   Q  E E  Q   Q    E E  E  E E E  E  E
|-----------------|---------------------|
|-----------------|---------------------|
|-14------17--14--|---------------------|
|--x-------x---x--|-----10-10-----10-10-|
|-12--0-0-15--12--|-7-7--7--7-7-7--7--7-|
|-----0-0---------|-7-7--7--7-7-7--7--7-|
|
|     PM|           PM|       PM|
|  Q  E E  Q   Q    E E  E  E E E  E  E
|-----------------|---------------------|
|-----------------|---------------------|
|-----------------|---------------------|
|-----------------|------7--7------7--7-|
|--7--0-0-10---7--|-7-7--7--7-7-7--7--7-|
|--7--0-0-10---7--|-7-7--7--7-7-7--7--7-|


  A5  D5  Bb5 A5
      PM|           PM|       PM|
   Q  E E  Q   Q    E E  E  E E E  E  E
|-----------------|---------------------|
|-----------------|---------------------|
|-14------15--14--|---------------------|
|--x-------x---x--|-----10-10-----10-10-|
|-12--0-0-13--12--|-7-7--7--7-7-7--7--7-|
|-----0-0---------|-7-7--7--7-7-7--7--7-|
|
|     PM|           PM|       PM|
|  Q  E E  Q   Q    E E  E  E E E  E  E
|-----------------|---------------------|
|-----------------|---------------------|
|-----------------|---------------------|
|-----------------|------7--7------7--7-|
|--7--0-0--8---7--|-7-7--7--7-7-7--7--7-|
|--7--0-0--8---7--|-7-7--7--7-7-7--7--7-|


  N.C.                    A5
                          PM|       PM|
   E  E E E  E  E  E  E   E E  E  E E E  E  E
|-----------------------|---------------------||
|-----------------------|---------------------||
|-----------------------|---------------------||
|-----------------------|-----10-10-----10-10-||
|-----------------------|-7-7--7--7-7-7--7--7-||
|-12-10-7-8-10-12-12-14-|-7-7--7--7-7-7--7--7-||
|
|                         PM|       PM|
|  E  E E E  E  E  E  E   E E  E  E E E  E  E
|-----------------------|---------------------||
|-----------------------|---------------------||
|-----------------------|---------------------||
|-----------------------|------7--7------7--7-||
|-----------------------|-7-7--7--7-7-7--7--7-||
|--8--7-3-5--7--8--8-10-|-7-7--7--7-7-7--7--7-||


 "There has never been.."
  N.C.
   E  E  E  E  E  E  E  E   E E E E E E E E
|-------------------------|-----------------|
|-------------------------|-----------------|
|-10-10-10-10-10-10-10-10-|-9-9-9-9-9-9-9-9-|
|--x--x--x--x--x--x--x--x-|-x-x-x-x-x-x-x-x-|
|--8--8--8--8--8--8--8--8-|-7-7-7-7-7-7-7-7-|
|-------------------------|-----------------|
|
|  E  E  E  E  E  E  E  E   E E E E E E E E
|-------------------------|-----------------|
|-------------------------|-----------------|
|--7--7--7--7--7--7--7--7-|-5-5-5-5-5-5-5-5-|
|--x--x--x--x--x--x--x--x-|-x-x-x-x-x-x-x-x-|
|--5--5--5--5--5--5--5--5-|-3-3-3-3-3-3-3-3-|
|-------------------------|-----------------|


  E E E E E E E E    E  E  E  E  E  E  E  E
|-----------------|-------------------------|
|-----------------|-------------------------|
|-7-7-7-7-7-7-7-7-|--5--5--5--5--5--5--5--5-|
|-x-x-x-x-x-x-x-x-|--x--x--x--x--x--x--x--x-|
|-5-5-5-5-5-5-5-5-|--3--3--3--3--3--3--3--3-|
|-----------------|-------------------------|
|
| E E E E E E E E    E  E  E  E  E  E  E  E
|-----------------|-------------------------|
|-----------------|-------------------------|
|-7-7-7-7-7-7-7-7-|-10-10-10-10-10-10-10-10-|
|-x-x-x-x-x-x-x-x-|--x--x--x--x--x--x--x--x-|
|-5-5-5-5-5-5-5-5-|--8--8--8--8--8--8--8--8-|
|-----------------|-------------------------|


    Dsus2          D5                N.C.
    Gtrs I, II
       PM   PM     PM--------|             PM     PM
    Q  E Q  E Q    E E E E E E E E    E  E E  E E E E E
||---------------|-----------------|--------------------|
||o--------------|-----------------|--------------------|
||--9----9----9--|-----------------|-12s10---10s9---9s7-|
||--7----7----7--|-----------------|--x--x----x-x---x-x-|
||o-5----5----5--|-0-0-0-0-0-0-----|-10s=8----8s7---7s5-|
||-----0----0----|-0-0-0-0-0-0-x-x-|-------0------0-----|


  1.
         PM----|     PM--|   PM--|
  E E Q  E E E E   E E E E E E E E
|----------------|--------------------||
|----------------|-------------------o||
|----------------|--------------------||
|-----0----------|--------------------||
|-1-3------------|-7-------8---------o||
|--------0-0-0-0-|---0-0-0---0-0-0----||


  2.
  N.C.
         PM----|     PM--|   PM  PM         PM----|     PM--|   PM  PM
  E E Q  E E E E   E E E E E E E E   E E Q  E E E E   E E E E E E E E
|----------------|-----------------|----------------|-----------------||
|----------------|-----------------|----------------|-----------------||
|----------------|-----------------|----------------|-----------------||
|-----0----------|-----------------|-----0----------|-----------------||
|-1-3------------|-7-------8---7---|-1-3------------|-7-------8---7---||
|--------0-0-0-0-|---0-0-0---0---0-|--------0-0-0-0-|---0-0-0---0---0-||


   "It's just like me to burn.."
    (B(C(Dm)D5        (F) D5  (Em)D5    (B(C(Dm)D5        (F) D5  (EmC5 Bb5
    Gtr I
            PM----|       PM|     PM|           PM----|       PM|     PM|
                                                                   |-3--|
    E E  Q  E E E E    Q  E E  Q  E E   E E  Q  E E E E    Q  E E  Q  Q Q
||------------------|-----------------|-----------------|------------------||
||o-----------------|-----------------|-----------------|-----------------o||
||--3-5--7----------|-10-------9------|-3-5--7----------|-10-------9-------||
||--x-x--x----------|--x-------x------|-x-x--x----------|--x-------x-------||
||o-1-3--5--0-0-0-0-|--8--0-0--7--0-0-|-1-3--5--0-0-0-0-|--8--0-0--7-10-8-o||
||----------0-0-0-0-|-----0-0-----0-0-|---------0-0-0-0-|-----0-0----10-8--||
|
|   Gtr II
|           PM----|       PM|     PM|           PM----|       PM|     PM|
|                                                                  |-3--|
|   E E  Q  E E E E    Q  E E  Q  E E   E E  Q  E E E E    Q  E E  Q  Q Q
||------------------|-----------------|-----------------|------------------||
||o-----------------|-----------------|-----------------|-----------------o||
||--7-9-10----------|-14------12------|-7-9-10----------|-14------12-------||
||--x-x--x----------|--x-------x------|-x-x--x----------|--x-------x-------||
||o-5-7--8--0-0-0-0-|-12--0-0-10--0-0-|-5-7--8--0-0-0-0-|-12--0-0-10-10-8-o||
||----------0-0-0-0-|-----0-0-----0-0-|---------0-0-0-0-|-----0-0----10-8--||


  G5
   T      T      T          T      T
   E E E  E E E  E E    E   E E E  E E E E
|--------------------|---------------------|
|-13-5h8-13-5h8-13-5h|==8--13-5h8-13-5h8p5-|
|--------------------|---------------------|
|--------------------|---------------------|
|--------------------|---------------------|
|--------------------|---------------------|
|
|  W                   +W
|--------------------|---------------------|
|--------------------|---------------------|
|--------------------|---------------------|
|--5-----------------|-(5)-----------------|
|--5-----------------|-(5)-----------------|
|--5-----------------|-(5)-----------------|


  Bb5
   T       T       T          T       T
   E E  E  E E  E  E E    E   E E  E  E E  E E
|----------------------|-----------------------|
|-15-8h10-15-8h10-15-8h|=10--15-8h10-15-8h10p8-|
|----------------------|-----------------------|
|----------------------|-----------------------|
|----------------------|-----------------------|
|----------------------|-----------------------|
|
|  W                     +W
|----------------------|-----------------------|
|----------------------|-----------------------|
|----------------------|-----------------------|
|--8-------------------|-(8)-------------------|
|--8-------------------|-(8)-------------------|
|--8-------------------|-(8)-------------------|


  G5                              F5
   T      T      T          T      T
   E E E  E E E  E E    E   E E E  E E E E
|--------------------|---------------------|
|-13-5h8-13-5h8-13-5h|==8--13-5h8-13-5h8p5-|
|--------------------|---------------------|
|--------------------|---------------------|
|--------------------|---------------------|
|--------------------|---------------------|
|
|  W                   +H          H
|--------------------|---------------------|
|--------------------|---------------------|
|--------------------|---------------------|
|--5-----------------|-(5)---------3-------|
|--5-----------------|-(5)---------3-------|
|--5-----------------|-(5)---------3-------|


  Bb5                     C5
   T       T       T                   ~~~
   E E  E  E E  E  E  E    E  E  E  E  Q.    +E
|-----------------------|-12h13p12----------------||
|-15-8h10-15-8h10-15-h8-|----------13h15----(15)\-||
|-----------------------|-------------------------||
|-----------------------|-------------------------||
|-----------------------|-------------------------||
|-----------------------|-------------------------||
|
|  W                       W
|-----------------------|-------------------------||
|-----------------------|-------------------------||
|-----------------------|-------------------------||
|--8--------------------|-10----------------------||
|--8--------------------|-10----------------------||
|--8--------------------|-10----------------------||


 Interlude
  D5
  Q    Q   Q    E E   E  E  E E H         Q    Q   Q     E E   E  E E E H
|-------------------|-------------------|--------------------|---------------|
|-------------------|-------------------|--------------------|---------------|
|-9---10---7---12---|---10------9-------|-9---10---7----12---|---10-----9----|
|-x----x---x----x---|----x------x-------|-x----x---x-----x---|----x-----x----|
|-7----8---5---10---|----8------7-------|-7----8---5----10---|----8-----7----|
|-----------------0-|-0-----0-0---------|------------------0-|-0----0-0------|
|
| PM--------------------------------|     PM----------------------------|
| E E  E E E E  E E   E  Q.     E E E E   E E  E E e Q.        E  E E E H
|-------------------|-------------------|--------------------|---------------|
|-------------------|-------------------|--------------------|---------------|
|-------------------|-------------------|--------------------|---------------|
|-------------------|-------------------|--------------------|---------------|
|-0-0--0-0---0--0-0-|-0---------0-0-0---|-0-0--0-0-0---------|-0----0-0------|
|-0-0--0-0---0--0-0-|-0---------0-0-0---|-0-0--0-0-0---------|-0----0-0------|


  Bb5
                   PM--|   PM|                            PM--|   PM|
  Q    Q   Q   E   E   E E E E H       Q      Q   Q     E E   E E E E   H
|--------------------|---------------|----------------------|------------------|
|--------------------|---------------|----------------------|------------------|
|-9---10---7---7-----|---7-----7-----|-9-----10---7-----7---|---7-------7------|
|-x----x---x---x-----|---x-----x-----|-x------x---x-----x---|---x-------x------|
|-7----8---5---5-----|---5-----5-----|-7------8---5-----5---|---5-------5------|
|------------------0-|-0---0-0-------|--------------------0-|-0---0-0----------|
|
| PM-----------------------|           PM---------------------|   PM------|
|          |--3--|                     |-3-|      |-3-|           |---3---|
| E E  E E Q Q   Q     E E E H     E   E E E  E E E E E E E   E E Q   Q   Q Q
|--------------------|---------------|----------------------|------------------|
|--------------------|---------------|----------------------|------------------|
|--------------------|---------------|----------------------|------------------|
|--------------------|---------------|----------------------|------------------|
|-8----8---8-8---8---|-8---8---------|-8-8-8--8---8-8-8-8---|-8---8---8---8----|
|-8----8---8-8---8---|-8---8---------|-8-8-8--8---8-8-8-8---|-8---8---8---8----|


  G5
              PM--|   PM-|                   ~     PM--|   PM--|
  Q   Q  Q  E E   E E E  E H      Q      Q   Q   E E   E E E   E   H
|---------------|---------------|--------------------|---------------------|
|---------------|---------------|--------------------|---------------------|
|-9--10--7--7---|---5------7----|-9-----10---7---7---|---5---------7-------|
|-x---x--x--x---|---x------x----|-x------x---x---x---|---x---------x-------|
|-7---8--5--5---|---3------5----|-7------8---5---5---|---3---------5-------|
|-------------0-|-0---0--0------|------------------0-|-0---0---0-----------|
|
|        PM       PM              PM-------------------------------|
|                                 |-3-|                    |--3--|
| H      Q  Q     Q   H.          E E E  E E E E E E   E E E E   E E Q.
|---------------|---------------|--------------------|---------------------|
|---------------|---------------|--------------------|---------------------|
|---------------|---------------|--------------------|---------------------|
|---------------|---------------|--------------------|---------------------|
|--------5------|-5-------------|-5-5-5--5---5---5---|-5---5-5---5-5-------|
|--------5------|-5-------------|-5-5-5--5---5---5---|-5---5-5---5-5-------|


  D5
                 PM--|      PM--|
  Q    Q  Q    E E   E  E   E   E H
|------------------|--------------------|
|------------------|--------------------|
|-9---10--7---12---|---10---------9-----|
|-x----x--x----x---|----x---------x-----|
|-7----8--5---10---|----8---------7-----|
|----------------0-|-0------0---0-------|
|
| PM--------------------------|
|                       |--3--|
| E E  Q  E E  E E   E  E E   E H     E
|------------------|--------------------|
|------------------|--------------------|
|------------------|--------------------|
|------------------|--------------------|
|-0-0-----0----0-0-|----0-0---0---------|
|-0-0-----0----0-0-|----0-0---0---------|


                    PM--|    PM-|
  Q      Q   Q    E E   E  E E  E   H
|---------------------|---------------------|
|---------------------|---------------------|
|-9-----10---7---12---|---10--------9-------|
|-x------x---x----x---|----x--------x-------|
|-7------8---5---10---|----8--------7-------|
|-------------------0-|-0----0--0-----------|
|
| PM---------|    PM    PM------------|
| |-3-|
| E E E  E E E E  E E   E  E E.   E   Q..
|---------------------|---------------------|
|---------------------|---------------------|
|---------------------|---------------------|
|---------------------|---------------------|
|-0-0-0--0---0----0---|-0--0------0---------|
|-0-0-0--0---0----0---|-0--0------0---------|


  D5
  W          +W           +W           +W
|----------|------------|------------|--------|
|----------|------------|------------|--------|
|----------|------------|------------|--------|
|-0--------|-(0)--------|-(0)--------|-(0)----|
|-0--------|-(0)--------|-(0)--------|-(0)----|
|-0--------|-(0)--------|-(0)--------|-(0)----|
|
|                                      Gtr III
|                                       TP
| W          +W           +W            W
|----------|------------|------------|--------|
|----------|------------|------------|--------|
|----------|------------|------------|--------|
|-0--------|-(0)--------|-(0)--------|--x\----|
|-0--------|-(0)--------|-(0)--------|--x\----|
|-0--------|-(0)--------|-(0)--------|--x\----|


   "Every page of.."
    Free your heart Q=235
    N.C.
    Gtrs I, II
        PM----|   PM      PM|   PM          PM----|   PM      PM|   PM  PM
    E E E E E E E E   E E E E E E E E   E E E E E E E E   E E E E E E E E
||------------------|-----------------|-----------------|-------------------||
||o-----------------|-----------------|-----------------|------------------o||
||------------------|-----------------|-----------------|-------------------||
||--5-7-------------|-----------------|-5-7-------------|-------------------||
||o-------------5---|---------3-------|-------------5---|---------3--------o||
||------0-0-0-0---0-|-5-7-0-0---0-3-5-|-----0-0-0-0---0-|-5-7-0-0---0-3-0---||


    N.C.
    Gtr I
     E  E  E  E  E  E  E  E    E  E  E  E  E  E  E  E
||--------------------------|-------------------------|
||o----------------11-------|----------------11-------|
||--------------14----14----|-------------14----14----|
||--10-12-10-12----------12-|-10-12-10-12----------12-|
||o-------------------------|-------------------------|
||--------------------------|-------------------------|
|
|   Gtr II
|          PM------|      PM         PM|      PM
|    E  E  E  E  E  E  E  E    E  E  E  E  E  E  E  E
||--------------------------|-------------------------|
||o-------------------------|-------------------------|
||--------------------------|-------------------------|
||---5--7-------------------|-------------------------|
||o--------------------5----|--------------3----------|
||---------0--0--0--0-----0-|--5--7--0--0-----0--3--5-|


   E  E  E  E  E  E  E  E    E  E  E  E  E  E  E  E
|-------------------------|---------------------------||
|----------------11-------|----------------11--------o||
|-------------14----14----|-------------14----14------||
|-10-12-10-12----------12-|-10-12-10-12----------12---||
|-------------------------|--------------------------o||
|-------------------------|---------------------------||
|
|        PM------|      PM         PM|      PM    PM
|  E  E  E  E  E  E  E  E    E  E  E  E  E  E  E  E
|-------------------------|---------------------------||
|-------------------------|--------------------------o||
|-------------------------|---------------------------||
|--5--7-------------------|---------------------------||
|--------------------5----|--------------3-----------o||
|--------0--0--0--0-----0-|--5--7--0--0-----0--3--0---||


   "Because you lied.."
    Into the pit Q=245
    D5        F5 D5      C5  D5    F5 D5
    Gtrs I, II
        PM--|    PM--|       PM--|    PM--|
        |-3-|    |-3-|       |-3-|    |-3-|
     Q  E E E Q  E E E    Q  E E E Q  E E E
||---------------------|--------------------|
||o--------------------|--------------------|
||---------------------|--------------------|
||--12--------3--------|-10--------3--------|
||o-12--0-0-0-3--0-0-0-|-10--0-0-0-3--0-0-0-|
||--12--0-0-0-3--0-0-0-|-10--0-0-0-3--0-0-0-|


  D5        F5 D5      C5  D5    F5
      PM--|    PM--|       PM----------|
      |-3-|    |-3-|       |-3-|
   Q  E E E Q  E E E    Q  E E E E. E. E
|--------------------|---------------------|
|--------------------|---------------------|
|--------------------|---------------------|
|-12--------3--------|-10------------------|
|-12--0-0-0-3--0-0-0-|-10--0-0-0-3--3--3---|
|-12--0-0-0-3--0-0-0-|-10--0-0-0-3--3--3---|


  D5        F5 D5      C5  D5    F5 D5
      PM--|    PM--|       PM--|    PM--|
      |-3-|    |-3-|       |-3-|    |-3-|
   Q  E E E Q  E E E    Q  E E E Q  E E E
|--------------------|--------------------|
|--------------------|--------------------|
|--------------------|--------------------|
|-12--------3--------|-10--------3--------|
|-12--0-0-0-3--0-0-0-|-10--0-0-0-3--0-0-0-|
|-12--0-0-0-3--0-0-0-|-10--0-0-0-3--0-0-0-|


  D5        F5 D5      C5  D5    F5    G5
      PM--|    PM--|       PM----------|
      |-3-|    |-3-|       |-3-|
   Q  E E E Q  E E E    Q  E E E E. E. E
|--------------------|--------------------||
|--------------------|-------------------o||
|--------------------|--------------------||
|-12--------3--------|-10-----------------||
|-12--0-0-0-3--0-0-0-|-10--0-0-0-3--3--5-o||
|-12--0-0-0-3--0-0-0-|-10--0-0-0-3--3--5--||


  Ending Q=192
  (F)(EmD5  (Em(DmD5    C5
  Gtr I
        PM|       PM|
   E  E E E  E  E E E    W           +W            +W
|---------------------|-----------|-------------|---------|
|---------------------|-----------|-------------|---------|
|-14-12-----12-10-----|--9--------|--(9)--------|--(9)----|
|--x--x------x--x-----|--x--------|--(x)--------|--(x)----|
|-12-10-0-0-10--8-0-0-|--7--------|--(7)--------|--(7)----|
|-------0-0-------0-0-|-----------|-------------|---------|
|
| Gtr II
|       PM|       PM|
|  E  E E E  E  E E E    W           +W            +W
|---------------------|-----------|-------------|---------|
|---------------------|-----------|-------------|---------|
|-10--9------9--7-----|-----------|-------------|---------|
|--x--x------x--x-----|-10--------|-(10)--------|-(10)----|
|--8--7-0-0--7--5-0-0-|-10--------|-(10)--------|-(10)----|
|-------0-0-------0-0-|-10--------|-(10)--------|-(10)----|


  C5
    >
   +W            +W            +W            +W
|-------------|-------------|-------------|---------*|
|-------------|-------------|-------------|---------*|
|--(9)--------|--(9)--------|--(9)--------|--(9)----*|
|--(x)--------|--(x)--------|--(x)--------|--(x)----*|
|--(7)--------|--(7)--------|--(7)--------|--(7)----*|
|-------------|-------------|-------------|---------*|
|
|   >
|  +W            +W            +W            +W
|-------------|-------------|-------------|---------*|
|-------------|-------------|-------------|---------*|
|-------------|-------------|-------------|---------*|
|-(10)--------|-(10)--------|-(10)--------|-(10)----*|
|-(10)--------|-(10)--------|-(10)--------|-(10)----*|
|-(10)--------|-(10)--------|-(10)--------|-(10)----*|


Duration Legend
---------------
W - whole; H - half; Q - quarter; E - 8th; S - 16th; T - 32nd; X - 64th; a - acciaccatura
+ - note tied to previous; . - note dotted; .. - note double dotted
Uncapitalized letters represent notes that are staccato (1/2 duration)
Irregular groupings are notated above the duration line
Duration letters will always appear directly above the note/fret number it represents the
duration for.  Duration letters with no fret number below them represent rests.  Multi-
bar rests are notated in the form Wxn, where n is the number of bars to rest for.  Low
melody durations appear below the staff

Tablature Legend
----------------
 h   - hammer-on
 p   - pull-off
 b   - bend
 pb  - pre-bend
 r   - bend release (if no number after the r, then release immediately)
 /\  - slide into or out of (from/to "nowhere")
 s   - legato slide
 S   - shift slide
  - natural harmonic
[n]  - artificial harmonic
n(n) - tapped harmonic
 ~   - vibrato
 tr  - trill
 T   - tap
 TP  - trem. picking
 PM  - palm muting
\n/  - tremolo bar dip; n = amount to dip
 \n  - tremolo bar down
 n/  - tremolo bar up
/n\  - tremolo bar inverted dip
 =   - hold bend; also acts as connecting device for hammers/pulls
 <>  - volume swell (louder/softer)
 x   - on rhythm slash represents muted slash
 o   - on rhythm slash represents single note slash

Misc Legend
-----------
 |  - bar
||  - double bar
||o - repeat start
o|| - repeat end
*|  - double bar (ending)
 :  - bar (freetime)
 $  - Segno
 &  - Coda
Tempo markers -  = BPM(8/16=s8/s16), where s8 = swing 8ths, s16 = swing 16ths


***************************************************************************************
* Generated using Power Tab Editor by Brad Larsen - http://powertab.guitarnetwork.org *
***************************************************************************************
Tap to rate this tab
# A B C D E F G H I J K L M N O P Q R S T U V W X Y Z