Song name
# A B C D E F G H I J K L M N O P Q R S T U V W X Y Z

Misery Signals - Year Summer Ended In June tab

#----------------------------------PLEASE NOTE---------------------------------#
#This file is the author's own work and represents their interpretation of the #
#song. You may only use this file for private study, scholarship, or research. #
#------------------------------------------------------------------------------##

                          THE YEAR SUMMER ENDED IN JUNE
                          As recorded by Misery Signals
              (From the 2004 Album OF MALICE AND THE MAGNUM HEART)

Words and Music by Misery Signals
Arranged by Misery Signals
Transcribed by jonathan rose

Gtr I (C G C F A D) - 'Untitled'
Gtr II (C G C F A D) - 'Untitled'
Gtr III (C G C F A D) - 'Untitled'
Gtr IV (C G C F A D) - 'Untitled'
Gtr V (C G C F A D) - 'Untitled'
Gtr VI (C G C F A D) - 'Untitled'

   Intro
    Dancefight Q=198
    D5    Dbb5                    D5    D#5
   4/4
    Gtr I
        PM                            PM
    E E E H    +E    +W           E E E H    +E    +W
||-----------------|------------|----------------|---------||
||o----------------|------------|----------------|--------o||
||----7------------|------------|---7---8----(8)-|-(8)-----||
||----x---6----(6)-|-(6)--------|---x---x----(x)-|-(x)-----||
||o-0-5---5----(5)-|-(5)--------|-0-5---6----(6)-|-(6)----o||
||--0---0----------|------------|-0---0----------|---------||
|
|   Gtr II
|       PM                            PM
|   E E E H    +E    +W           E E E H    +E    +W
||-----------------|------------|----------------|---------||
||o----------------|------------|----------------|--------o||
||-----------------|------------|----------------|---------||
||----7---6----(6)-|-(6)--------|---7---8----(8)-|-(8)-----||
||o-0-5---5----(5)-|-(5)--------|-0-5---6----(6)-|-(6)----o||
||--0---0----------|------------|-0---0----------|---------||


  D5      D5
 3/8     7/8
      PM    PM   PM|   PM     PM|   PM  PM     PM  PM|   PM     PM|   PM  PM
  E E E   E E  E E E E E   E  E E E E E E   E  E E E E E E   E  E E E E E E
|-------|----------------|----------------|----------------|-----------------|
|-------|----------------|----------------|----------------|-----------------|
|---7---|----------------|----------------|----------------|-----------------|
|---x---|----------------|----------------|----------------|-----------------|
|-0-5---|-5----5-----5---|-5------5---5---|-5----5-----5---|-5------5---5----|
|-0---0-|-0-0--0-0-0-0-0-|-0--0-0-0-0-0-0-|-0--0-0-0-0-0-0-|-0--0-0-0-0-0-0--|
|
|     PM
| E E E   E H.             H.           E   H.           E   H.           E
|-------|----------------|----------------|----------------|-----------------|
|-------|----------------|----------------|----------------|-----------------|
|-------|----------------|----------------|----------------|-----------------|
|---7---|----------------|----------------|----------------|-----------------|
|-0-5---|-0--------------|----------------|----------------|-----------------|
|-0---0-|-0--------------|----------------|----------------|-----------------|


  F5
  Gtrs I, II
    PM  PM|   PM    PM|   PM  PM    PM  PM|   PM    PM|   PM  PM
  E E E E E E E   E E E E E E E   E E E E E E E   E E E E E E E
|---------------|---------------|---------------|---------------||
|---------------|---------------|---------------|---------------||
|---------------|---------------|---------------|---------------||
|---------------|---------------|---------------|---------------||
|-3---3-----3---|-3-----3---3---|-3---3-----3---|-3-----3---3---||
|-3-3-3-3-3-3-3-|-3-3-3-3-3-3-3-|-3-3-3-3-3-3-3-|-3-3-3-3-3-3-3-||


 "Sometimes that night.."
  D5                    N.C.       D5                    N.C.
  Gtr I
    PM  PM|   PM    PM|              PM  PM|   PM    PM|
  E E E E E E E   E E E E E E  E   E E E E E E E   E E E E E E E
|---------------|----------------|---------------|---------------|
|---------------|----------------|---------------|---------------|
|---------------|-------5--------|---------------|-------5-------|
|---------------|---------7-5----|---------------|---------7-5-7-|
|-5---5-----5---|-5------------7-|-5---5-----5---|-5-------------|
|-0-0-0-0-0-0-0-|-0-0-0----------|-0-0-0-0-0-0-0-|-0-0-0---------|
|
| Gtr II
|   PM  PM|   PM    PM|              PM  PM|   PM    PM|
| E E E E E E E   E E E E E E  E   E E E E E E E   E E E E E E E
|---------------|----------------|---------------|---------------|
|---------------|----------------|---------------|---------------|
|---------------|----------------|---------------|---------------|
|---------------|-------7--------|---------------|-------7-------|
|-0---0-----0---|-0-------8-7----|-0---0-----0---|-0-------8-7-8-|
|-0-0-0-0-0-0-0-|-0-0-0-------10-|-0-0-0-0-0-0-0-|-0-0-0---------|


  F5
  Gtrs I, II
    PM  PM|   PM    PM|   PM  PM    PM  PM|   PM    PM|   PM  PM
  E E E E E E E   E E E E E E E   E E E E E E E   E E E E E E E
|---------------|---------------|---------------|---------------|
|---------------|---------------|---------------|---------------|
|---------------|---------------|---------------|---------------|
|---------------|---------------|---------------|---------------|
|-3---3-----3---|-3-----3---3---|-3---3-----3---|-3-----3---3---|
|-3-3-3-3-3-3-3-|-3-3-3-3-3-3-3-|-3-3-3-3-3-3-3-|-3-3-3-3-3-3-3-|


  D5                    N.C.      D5                    N.C.
  Gtr I
    PM  PM|   PM    PM|             PM  PM|   PM    PM|
  E E E E E E E   E E E E E E E   E E E E E E E   E E E E E E  E
|---------------|---------------|---------------|----------------|
|---------------|---------------|---------------|----------------|
|---------------|-------5-------|---------------|-------5--------|
|---------------|---------7-5-7-|---------------|---------7-5----|
|-5---5-----5---|-5-------------|-5---5-----5---|-5------------7-|
|-0-0-0-0-0-0-0-|-0-0-0---------|-0-0-0-0-0-0-0-|-0-0-0----------|
|
| Gtr II
|   PM  PM|   PM    PM|             PM  PM|   PM    PM|
| E E E E E E E   E E E E E E E   E E E E E E E   E E E E E E  E
|---------------|---------------|---------------|----------------|
|---------------|---------------|---------------|----------------|
|---------------|---------------|---------------|----------------|
|---------------|-------7-------|---------------|-------7--------|
|-0---0-----0---|-0-------8-7-8-|-0---0-----0---|-0-------8-7----|
|-0-0-0-0-0-0-0-|-0-0-0---------|-0-0-0-0-0-0-0-|-0-0-0-------10-|


  F5
  Gtrs I, II
    PM  PM|   PM    PM|   PM  PM    PM  PM|   PM    PM|   PM  PM
  E E E E E E E   E E E E E E E   E E E E E E E   E E E E E E E
|---------------|---------------|---------------|---------------||
|---------------|---------------|---------------|---------------||
|---------------|---------------|---------------|---------------||
|---------------|---------------|---------------|---------------||
|-3---3-----3---|-3-----3---3---|-3---3-----3---|-3-----3---3---||
|-3-3-3-3-3-3-3-|-3-3-3-3-3-3-3-|-3-3-3-3-3-3-3-|-3-3-3-3-3-3-3-||


 "Do you remember.."
  N.C.
 3/4
  E E E E E E   E E E E E E   E E E E E E   E E E E E E
|-------------|-------------|-------------|-------------||
|-------------|-------------|-------------|-------------||
|-------------|-------------|-------------|-------------||
|-2p0---------|-2p0---------|-2p0---------|-2p0---------||
|---------3h5-|---------3h5-|---------3h5-|---------3h5-||
|-----2h3-----|-----2h3-----|-----2h3-----|-----2h3-----||


   "Roll down the window.."
    EbD5      F#F5    EbD5      F#F5    EbD5      F#F5    EbD5      F#F5
   4/4
        PM--|     PM      PM--|     PM      PM--|     PM      PM--|     PM
    E E E E E E E E   E E E E E E E E   E E E E E E E E   E E E E E E E E
||------------------|-----------------|-----------------|-------------------||
||o-----------------|-----------------|-----------------|------------------o||
||------------------|-----------------|-----------------|-------------------||
||------------------|-----------------|-----------------|-------------------||
||o-1p0-------4p3---|-1p0-------4p3---|-1p0-------4p3---|-1p0-------4p3----o||
||--1p0-0-0-0-4p3-0-|-1p0-0-0-0-4p3-0-|-1p0-0-0-0-4p3-0-|-1p0-0-0-0-4p3-0---||


 "You said.."
  Relax Q=117
  C/F       Fsus2
 3/4
  Gtr I
   E  S  E.  E  S  E.    E  S  E.  E  S  E.
|---------------------|---------------------|
|---------------------|---------------------|
|--9--9--9--12-12-12--|-12-12-12--12-12-12--|
|-10-10-10--10-10-10--|-10-10-10--10-10-10--|
|--8--8--8---8--8--8--|--8--8--8---8--8--8--|
|---------------------|---------------------|


    C/F                   Fsus2
    Gtrs I, II
     E  S  E.  E  S  E.    E  S  E.  E  S  E.
||----------------------|----------------------||
||o---------------------|---------------------o||
||---9--9--9---9--9--9--|-12-12-12--12-12-12---||
||--10-10-10--10-10-10--|-10-10-10--10-10-10---||
||o--8--8--8---8--8--8--|--8--8--8---8--8--8--o||
||----------------------|----------------------||


                                         "I must not let you die.."
  Keep Dancin' Q=198
  D5                          N.C.        EbD5   F#F5    EbD5   F#F5
                                         4/4
  PM----------------------|                          PM             PM
  E E E E E E   E E E E E E    H.         E H    E E E   E H    E E E
|-------------|-------------|----------||--------------|----------------|
|-------------|-------------|----------||--------------|----------------|
|-------------|-------------|-<7>------||--------------|----------------|
|-------------|-------------|-<7>------||--------------|----------------|
|-0-0-0-0-0-0-|-0-0-0-0-0-0-|----------||-1p0----4p3---|-1p0----4p3-----|
|-0-0-0-0-0-0-|-0-0-0-0-0-0-|----------||-1p0----4p3-0-|-1p0----4p3-0---|


  EbD5      F#F5    EbD5      F#F5    EbD5      F#F5    EbD5      F#F5
      PM--|     PM      PM--|     PM      PM--|     PM      PM--|     PM
  E E E E E E E E   E E E E E E E E   E E E E E E E E   E E E E E E E E
|-----------------|-----------------|-----------------|-----------------|
|-----------------|-----------------|-----------------|-----------------|
|-----------------|-----------------|-----------------|-----------------|
|-----------------|-----------------|-----------------|-----------------|
|-1p0-------4p3---|-1p0-------4p3---|-1p0-------4p3---|-1p0-------4p3---|
|-1p0-0-0-0-4p3-0-|-1p0-0-0-0-4p3-0-|-1p0-0-0-0-4p3-0-|-1p0-0-0-0-4p3-0-|


  N.C.               EbD5           N.C.
  Gtr I
                                PM
   E E E E E E E E   E H    E E E    E E E E E E E E
|------------------|--------------|------------------|
|------------------|--------------|------------------|
|----------5h7-7h9-|--------------|----------5h7-7h9-|
|-10p7-5h7---------|--------------|-10p7-5h7---------|
|------------------|-1p0----4p3---|------------------|
|------------------|-1p0----4p3-0-|------------------|
|
| Gtr II
|                               PM
|  E E E E E E E E   E H    E E E    E E E E E E E E
|------------------|--------------|------------------|
|------------------|--------------|------------------|
|----------2h3-3h5-|--------------|----------2h3-3h5-|
|--7p3-2h3---------|--------------|--7p3-2h3---------|
|------------------|-1p0----4p3---|------------------|
|------------------|-1p0----4p3-0-|------------------|


  D#D5    F#F5      EbD5      F#F5
      PM--|     PM      PM--|     PM
  E E E E E E E E   E E E E E E E E
|-----------------|-----------------|
|-----------------|-----------------|
|-----------------|-----------------|
|-----------------|-----------------|
|-1p0-------4p3---|-1p0-------4p3---|
|-1p0-0-0-0-4p3-0-|-1p0-0-0-0-4p3-0-|
|
|     PM--|     PM      PM--|     PM
| E E E E E E E E   E E E E E E E E
|-----------------|-----------------|
|-----------------|-----------------|
|-----------------|-----------------|
|-----------------|-----------------|
|-1p0-------4p3---|-1p0-------4p3---|
|-1p0-0-0-0-4p3-0-|-1p0-0-0-0-4p3-0-|


  N.C.               F5
                    7/8
                       PM  PM|   PM
   E E E E E E E E   E E E E E E E
|------------------|---------------|
|------------------|---------------|
|----------5h7-7h9-|---------------|
|-10p7-5h7---------|---------------|
|------------------|-3---3-----3---|
|------------------|-3-3-3-3-3-3-3-|
|
|                      PM  PM|   PM
|  E E E E E E E E   E E E E E E E
|------------------|---------------|
|------------------|---------------|
|----------2h3-3h5-|---------------|
|--7p3-2h3---------|---------------|
|------------------|-3---3-----3---|
|------------------|-3-3-3-3-3-3-3-|


    PM|   PM  PM    PM  PM|   PM    PM|   PM  PM
  E E E E E E E   E E E E E E E   E E E E E E E
|---------------|---------------|---------------||
|---------------|---------------|---------------||
|---------------|---------------|---------------||
|---------------|---------------|---------------||
|-3-----3---3---|-3---3-----3---|-3-----3---3---||
|-3-3-3-3-3-3-3-|-3-3-3-3-3-3-3-|-3-3-3-3-3-3-3-||
|
|   PM|   PM  PM    PM  PM|   PM    PM|   PM  PM
| E E E E E E E   E E E E E E E   E E E E E E E
|---------------|---------------|---------------||
|---------------|---------------|---------------||
|---------------|---------------|---------------||
|---------------|---------------|---------------||
|-3-----3---3---|-3---3-----3---|-3-----3---3---||
|-3-3-3-3-3-3-3-|-3-3-3-3-3-3-3-|-3-3-3-3-3-3-3-||


 "As I lay awake.."
  D5                    N.C.       D5                    N.C.
    PM  PM|   PM    PM|              PM  PM|   PM    PM|
  E E E E E E E   E E E E E E  E   E E E E E E E   E E E E E E  E
|---------------|----------------|---------------|----------------|
|---------------|----------------|---------------|----------------|
|---------------|-------5--------|---------------|-------5--------|
|---------------|---------7-5----|---------------|---------7-5----|
|-5---5-----5---|-5------------7-|-5---5-----5---|-5------------7-|
|-0-0-0-0-0-0-0-|-0-0-0----------|-0-0-0-0-0-0-0-|-0-0-0----------|
|
|   PM  PM|   PM    PM|              PM  PM|   PM    PM|
| E E E E E E E   E E E E E E  E   E E E E E E E   E E E E E E  E
|---------------|----------------|---------------|----------------|
|---------------|----------------|---------------|----------------|
|---------------|----------------|---------------|----------------|
|---------------|-------7--------|---------------|-------7--------|
|-0---0-----0---|-0-------8-7----|-0---0-----0---|-0-------8-7----|
|-0-0-0-0-0-0-0-|-0-0-0-------10-|-0-0-0-0-0-0-0-|-0-0-0-------10-|


  F5
  Gtrs I, II
    PM  PM|   PM    PM|   PM  PM    PM  PM|   PM    PM|   PM  PM
  E E E E E E E   E E E E E E E   E E E E E E E   E E E E E E E
|---------------|---------------|---------------|---------------|
|---------------|---------------|---------------|---------------|
|---------------|---------------|---------------|---------------|
|---------------|---------------|---------------|---------------|
|-3---3-----3---|-3-----3---3---|-3---3-----3---|-3-----3---3---|
|-3-3-3-3-3-3-3-|-3-3-3-3-3-3-3-|-3-3-3-3-3-3-3-|-3-3-3-3-3-3-3-|


  D5                    N.C.      D5                    N.C.
  Gtr I
    PM  PM|   PM    PM|             PM  PM|   PM    PM|
  E E E E E E E   E E E E E E E   E E E E E E E   E E E E E E  E
|---------------|---------------|---------------|----------------|
|---------------|---------------|---------------|----------------|
|---------------|-------5-------|---------------|-------5--------|
|---------------|---------7-5-7-|---------------|---------7-5----|
|-5---5-----5---|-5-------------|-5---5-----5---|-5------------7-|
|-0-0-0-0-0-0-0-|-0-0-0---------|-0-0-0-0-0-0-0-|-0-0-0----------|
|
| Gtr II
|   PM  PM|   PM    PM|             PM  PM|   PM    PM|
| E E E E E E E   E E E E E E E   E E E E E E E   E E E E E E  E
|---------------|---------------|---------------|----------------|
|---------------|---------------|---------------|----------------|
|---------------|---------------|---------------|----------------|
|---------------|-------7-------|---------------|-------7--------|
|-0---0-----0---|-0-------8-7-8-|-0---0-----0---|-0-------8-7----|
|-0-0-0-0-0-0-0-|-0-0-0---------|-0-0-0-0-0-0-0-|-0-0-0-------10-|


  F5
  Gtrs I, II
    PM  PM|   PM    PM|   PM  PM    PM  PM|   PM    PM|   PM  PM
  E E E E E E E   E E E E E E E   E E E E E E E   E E E E E E E
|---------------|---------------|---------------|---------------||
|---------------|---------------|---------------|---------------||
|---------------|---------------|---------------|---------------||
|---------------|---------------|---------------|---------------||
|-3---3-----3---|-3-----3---3---|-3---3-----3---|-3-----3---3---||
|-3-3-3-3-3-3-3-|-3-3-3-3-3-3-3-|-3-3-3-3-3-3-3-|-3-3-3-3-3-3-3-||


 "And how you're always.."
  C/F
 4/4
   W           +W            +W            +W
|-----------|-------------|-------------|---------|
|-----------|-------------|-------------|---------|
|--9--------|--(9)--------|--(9)--------|--(9)----|
|-10--------|-(10)--------|-(10)--------|-(10)----|
|--8--------|--(8)--------|--(8)--------|--(8)----|
|-----------|-------------|-------------|---------|


  Into The Pit Q=178
  D5
 3/4
  PM------------------------------------------------------------------|
  E E S S S S E E   E E S S S S E E   E E S S S S E E   E E S S S S E E
|-----------------|-----------------|-----------------|-----------------|
|-----------------|-----------------|-----------------|-----------------|
|-----------------|-----------------|-----------------|-----------------|
|-----------------|-----------------|-----------------|-----------------|
|-0-0-0-0-0-0-0-0-|-0-0-0-0-0-0-0-0-|-0-0-0-0-0-0-0-0-|-0-0-0-0-0-0-0-0-|
|-0-0-0-0-0-0-0-0-|-0-0-0-0-0-0-0-0-|-0-0-0-0-0-0-0-0-|-0-0-0-0-0-0-0-0-|


  D5
  PM---------------------------------
  E E S S S S E E   E E S S S S E E
|-----------------|-----------------|
|-----------------|-----------------|
|-----------------|-----------------|
|-----------------|-----------------|
|-0-0-0-0-0-0-0-0-|-0-0-0-0-0-0-0-0-|
|-0-0-0-0-0-0-0-0-|-0-0-0-0-0-0-0-0-|


                                     2/4
 -------------------------------|     PM------|
  E E S S S S E E   E E S S S S E E   S S S S E E
|-----------------|-----------------|-------------||
|-----------------|-----------------|-------------||
|-----------------|-----------------|-------------||
|-----------------|-----------------|-------------||
|-0-0-0-0-0-0-0-0-|-0-0-0-0-0-0-0---|-0-0-0-0-0---||
|-0-0-0-0-0-0-0-0-|-0-0-0-0-0-0-0---|-0-0-0-0-0---||


   "You're with me.."
    D5
   3/4
    PM----|   PM--|      PM----|   PM--|
    S S S S E S S S E.   S S S S E S S S E.
||---------------------|--------------------|
||o--------------------|--------------------|
||---------------------|--------------------|
||---------------------|--------------------|
||o-0-0-0-0---0-0-0----|-0-0-0-0---0-0-0----|
||--0-0-0-0---0-0-0----|-0-0-0-0---0-0-0----|


  PM----|   PM--|      PM----|   PM--|
  S S S S E S S S E.   S S S S E S S S E.  4x
|--------------------|---------------------||
|--------------------|--------------------o||
|--------------------|---------------------||
|--------------------|---------------------||
|-0-0-0-0---0-0-0----|-0-0-0-0---0-0-0----o||
|-0-0-0-0---0-0-0----|-0-0-0-0---0-0-0-----||


 "Won't you stay.."
  A5      Fsus2          A5      Fsus2
 4/4
  Gtr I
  PM----|                PM----|
  E. E. E  E.  E.  E     E. E. E  E.  E.  E
|----------------------|----------------------|
|----------------------|----------------------|
|---------12--12--12---|---------12--12--12---|
|---------10--10--10---|---------10--10--10---|
|-7--7--7--8---8---8---|-7--7--7--8---8---8---|
|-7--7--7--------------|-7--7--7--------------|
|
| Gtr VI
| W                      W
|----------------------|----------------------|
|----------------------|----------------------|
|----------------------|----------------------|
|----------------------|----------------------|
|----------------------|----------------------|
|----------------------|----------------------|


  A5      Fsus2          A5      Fsus2
  PM----|                PM----|
  E. E. E  E.  E.  E     E. E. E  E.  E.  E
|----------------------|----------------------|
|----------------------|----------------------|
|---------12--12--12---|---------12--12--12---|
|---------10--10--10---|---------10--10--10---|
|-7--7--7--8---8---8---|-7--7--7--8---8---8---|
|-7--7--7--------------|-7--7--7--------------|
|
|                        TP
| W                      W
|----------------------|----------------------|
|----------------------|----------------------|
|----------------------|----------------------|
|----------------------|-x\-------------------|
|----------------------|-x\-------------------|
|----------------------|-x\-------------------|


  F5         C/F          F5         Fsus2
  Gtr I
   E.  E.  E  E.  E.  E    E.  E.  E  E.  E.  E
|-----------------------|--3---3---3--3---3---3-|
|--5---5---5--5---5---5-|--x---x---x--x---x---x-|
|--5---5---5--5---5---5-|--5---5---5--5---5---5-|
|--3---3---3--3---3---3-|--3---3---3--3---3---3-|
|-----------------------|-----------------------|
|-----------------------|-----------------------|
|
| Gtr II
|  PM-----|                PM-----|
|  E.  E.  E  E.  E.  E    E.  E.  E  E.  E.  E
|-----------------------|-----------------------|
|-----------------------|-----------------------|
|-------------9---9---9-|------------12--12--12-|
|-10--10--10-10--10--10-|-10--10--10-10--10--10-|
|--8---8---8--8---8---8-|--8---8---8--8---8---8-|
|-----------------------|-----------------------|


  F5         C/F          F5         Fsus2
   E.  E.  E  E.  E.  E    E.  E.  E  E.  E.  E
|-----------------------|--3---3---3--3---3---3-|
|--5---5---5--5---5---5-|--x---x---x--x---x---x-|
|--5---5---5--5---5---5-|--5---5---5--5---5---5-|
|--3---3---3--3---3---3-|--3---3---3--3---3---3-|
|-----------------------|-----------------------|
|-----------------------|-----------------------|
|
|  PM-----|                PM-----|
|  E.  E.  E  E.  E.  E    E.  E.  E  E.  E.  E
|-----------------------|-----------------------|
|-----------------------|-----------------------|
|-------------9---9---9-|------------12--12--12-|
|-10--10--10-10--10--10-|-10--10--10-10--10--10-|
|--8---8---8--8---8---8-|--8---8---8--8---8---8-|
|-----------------------|-----------------------|


  A5      Fsus2    A5      Fsus2    A5      Fsus2    A5      Fsus2
 4/4
  Gtr I
  PM----|          PM----|          PM----|          PM----|
  E. E. E  H       E. E. E  H       E. E. E  H       E. E. E  H
|----------------|----------------|----------------|---------------|
|----------------|----------------|----------------|---------------|
|---------12-----|---------12-----|---------12-----|---------12----|
|---------10-----|---------10-----|---------10-----|---------10----|
|-7--7--7--8-----|-7--7--7--8-----|-7--7--7--8-----|-7--7--7--8----|
|-7--7--7--------|-7--7--7--------|-7--7--7--------|-7--7--7-------|
|
| Gtr VI
|                                                    TP
| W                W                W                W
|----------------|----------------|----------------|---------------|
|----------------|----------------|----------------|---------------|
|----------------|----------------|----------------|---------------|
|----------------|----------------|----------------|-x\------------|
|----------------|----------------|----------------|-x\------------|
|----------------|----------------|----------------|-x\------------|


  F5         C/F          F5         Fsus2
  Gtr I
   E.  E.  E  E.  E.  E    E.  E.  E  E.  E.  E
|-----------------------|--3---3---3--3---3---3-|
|--5---5---5--5---5---5-|--x---x---x--x---x---x-|
|--5---5---5--5---5---5-|--5---5---5--5---5---5-|
|--3---3---3--3---3---3-|--3---3---3--3---3---3-|
|-----------------------|-----------------------|
|-----------------------|-----------------------|
|
| Gtr II
|  PM-----|                PM-----|
|  E.  E.  E  E.  E.  E    E.  E.  E  E.  E.  E
|-----------------------|-----------------------|
|-----------------------|-----------------------|
|-------------9---9---9-|------------12--12--12-|
|-10--10--10-10--10--10-|-10--10--10-10--10--10-|
|--8---8---8--8---8---8-|--8---8---8--8---8---8-|
|-----------------------|-----------------------|


  F5         C/F          F5         Fsus2
   E.  E.  E  E.  E.  E    E.  E.  E  E.  E.  E
|-----------------------|--3---3---3--3---3---3-|
|--5---5---5--5---5---5-|--x---x---x--x---x---x-|
|--5---5---5--5---5---5-|--5---5---5--5---5---5-|
|--3---3---3--3---3---3-|--3---3---3--3---3---3-|
|-----------------------|-----------------------|
|-----------------------|-----------------------|
|
|  PM-----|                PM-----|
|  E.  E.  E  E.  E.  E    E.  E.  E  E.  E.  E
|-----------------------|-----------------------|
|-----------------------|-----------------------|
|-------------9---9---9-|------------12--12--12-|
|-10--10--10-10--10--10-|-10--10--10-10--10--10-|
|--8---8---8--8---8---8-|--8---8---8--8---8---8-|
|-----------------------|-----------------------|


  (Bbmaj7/D)           Dm/A               D5
 3/4
  Gtr I
   E   E  E  E  E  E    Q    E  E  E  E    +H.         +H.
|--------------------|-13---13-13-13-13-|-(13)------|-(13)----|
|-----------11-------|-15---15-15-15-15-|-(15)------|-(15)----|
|-----14-------14----|-14---14-14-14-14-|-(14)------|-(14)----|
|-12-----12-------12-|------------------|-----------|---------|
|--------------------|------------------|-----------|---------|
|--------------------|------------------|-----------|---------|
|
| Gtr II
|  H.                   H.                  H.         +H.
|--------------------|------------------|-----------|---------|
|--------------------|------------------|-----------|---------|
|--------------------|------------------|-----------|---------|
|--------------------|------------------|---0-------|--(0)----|
|--------------------|------------------|---0-------|--(0)----|
|--------------------|------------------|---0-------|--(0)----|


                            "I lost them as I lost y
  D5
              PM------|      PM---------------------
   +H.        E E E E E E    S S S S S S S S E S S
|-(13)------|-------------||-----------------------|
|-(15)------|-------------||-----------------------|
|-(14)------|-------------||-----------------------|
|-----------|-------------||-----------------------|
|-----------|-0-0-0-0-0---||-0-0-0-0-0-0-0-0-0---0-|
|-----------|-0-0-0-0-0---||-0-0-0-0-0-0-0-0-0---0-|
|
|             PM------|      PM---------------------
|  +H.        E E E E E E    S S S S S S S S E S S
|-----------|-------------||-----------------------|
|-----------|-------------||-----------------------|
|-----------|-------------||-----------------------|
|--(0)------|-------------||-----------------------|
|--(0)------|-0-0-0-0-0---||-0-0-0-0-0-0-0-0-0---0-|
|--(0)------|-0-0-0-0-0---||-0-0-0-0-0-0-0-0-0---0-|


 ou.."
                       5/4
 ---------------------------------------------|
  S S S S E E S S S S   S S S S E E E E E E E E
|---------------------|-------------------------|
|---------------------|-------------------------|
|---------------------|-------------------------|
|---------------------|-------------------------|
|-0-0-0-0-0---0-0-0-0-|-0-0-0-0-0---0-0-0-0-0---|
|-0-0-0-0-0---0-0-0-0-|-0-0-0-0-0---0-0-0-0-0---|
|
|-------------------------------------------|
| S S S S E E S S S S   S S S S E E E E E E E E
|---------------------|-------------------------|
|---------------------|-------------------------|
|---------------------|-------------------------|
|---------------------|-------------------------|
|-0-0-0-0-0---0-0-0-0-|-0-0-0-0-0---0-0-0-0-0---|
|-0-0-0-0-0---0-0-0-0-|-0-0-0-0-0---0-0-0-0-0---|


    D5
   4/4
    Gtrs I, II
    PM---------------------------
    S S S S S S S S E E S S S S
||------------------------------|
||o-----------------------------|
||------------------------------|
||------------------------------|
||o-0-0-0-0-0-0-0-0-0---0-0-0-0-|
||--0-0-0-0-0-0-0-0-0---0-0-0-0-|


 ---------------------------------------------------|
  S S S S E E S S S S S S S S   E E S S S S S S S S E E    3x
|-----------------------------|----------------------------||
|-----------------------------|---------------------------o||
|-----------------------------|----------------------------||
|-----------------------------|----------------------------||
|-0-0-0-0-0---0-0-0-0-0-0-0-0-|-0---0-0-0-0-0-0-0-0-0-----o||
|-0-0-0-0-0---0-0-0-0-0-0-0-0-|-0---0-0-0-0-0-0-0-0-0------||


 "Waiting to see.."
  Raise your fist Q=185
  A5 N.C.         A5   C5      A5 N.C.         A5   E5
 3/4
  Gtrs I, II
  Q  E  E  E  E   Q.    Q.     Q  E  E  E  E   Q.   Q.
|---------------|------------|---------------|-----------|
|---------------|------------|---------------|-----------|
|---------12----|------------|---------12----|-----------|
|-7--9-10----10-|-7----10----|-7--9-10----10-|-7----2----|
|-7-------------|-7----10----|-7-------------|-7----2----|
|-7-------------|-7----10----|-7-------------|-7----2----|


  F5 Cadd11/F F5 Cadd11/F F5 Cadd11/F F5 Cadd11/F
  Q  E E Q    Q  E E Q    Q  E E Q    Q  E E Q
|-----------|-----------|-----------|-----------|
|----5-5-5--|----5-5-5--|----5-5-5--|----5-5-5--|
|----5-5-5--|----5-5-5--|----5-5-5--|----5-5-5--|
|-3--3-3-3--|-3--3-3-3--|-3--3-3-3--|-3--3-3-3--|
|-3--3-3-3--|-3--3-3-3--|-3--3-3-3--|-3--3-3-3--|
|-3--3-3-3--|-3--3-3-3--|-3--3-3-3--|-3--3-3-3--|


  A5 N.C.         A5   C5      A5    N.C.             A5   E5
  Gtr I
                                   |--3--|  |--3--|
  Q  E  E  E  E   Q.    Q.     Q   E  E  E  E  E  E   Q.   Q.
|---------------|------------|----------------------|-----------|
|---------------|------------|----------------------|-----------|
|---------12----|------------|-----9-10--9----------|-----------|
|-7--9-10----10-|-7----10----|-7-----------10-12-10-|-7----2----|
|-7-------------|-7----10----|-7--------------------|-7----2----|
|-7-------------|-7----10----|-7--------------------|-7----2----|
|
| Gtr II
|                                  |--3--|  |--3--|
| Q  E  E  E  E   Q.    Q.     Q   E  E  E  E  E  E   Q.   Q.
|---------------|------------|----------------------|-----------|
|---------------|------------|----------------------|-----------|
|---------12----|------------|----------------------|-----------|
|-7--9-10----10-|-7----10----|-7--10-12-10----------|-7----2----|
|-7-------------|-7----10----|-7-----------12-14-12-|-7----2----|
|-7-------------|-7----10----|-7--------------------|-7----2----|


  F5 Cadd11/F F5 Cadd11/F F5 Cadd11/F F5 Cadd11/F
  Gtrs I, II
  Q  E E Q    Q  E E Q    Q  E E Q    Q  E E Q
|-----------|-----------|-----------|-----------|
|----5-5-5--|----5-5-5--|----5-5-5--|----5-5-5--|
|----5-5-5--|----5-5-5--|----5-5-5--|----5-5-5--|
|-3--3-3-3--|-3--3-3-3--|-3--3-3-3--|-3--3-3-3--|
|-3--3-3-3--|-3--3-3-3--|-3--3-3-3--|-3--3-3-3--|
|-3--3-3-3--|-3--3-3-3--|-3--3-3-3--|-3--3-3-3--|


  A5 N.C.         A5   C5      A5 N.C.         A5   E5
  Q  E  E  E  E   Q.    Q.     Q  E  E  E  E   Q.   Q.
|---------------|------------|---------------|-----------|
|---------------|------------|---------------|-----------|
|---------12----|------------|---------12----|-----------|
|-7--9-10----10-|-7----10----|-7--9-10----10-|-7----2----|
|-7-------------|-7----10----|-7-------------|-7----2----|
|-7-------------|-7----10----|-7-------------|-7----2----|


  F5 Cadd11/F F5 Cadd11/F F5 Cadd11/F F5 Cadd11/F
  Q  E E Q    Q  E E Q    Q  E E Q    Q  E E Q
|-----------|-----------|-----------|-----------|
|----5-5-5--|----5-5-5--|----5-5-5--|----5-5-5--|
|----5-5-5--|----5-5-5--|----5-5-5--|----5-5-5--|
|-3--3-3-3--|-3--3-3-3--|-3--3-3-3--|-3--3-3-3--|
|-3--3-3-3--|-3--3-3-3--|-3--3-3-3--|-3--3-3-3--|
|-3--3-3-3--|-3--3-3-3--|-3--3-3-3--|-3--3-3-3--|


  F5                                              D5
 4/4
  Gtr I
                                                  PM------------|
  Q  E Q  E E E   Q  E Q  E E E   Q  E Q  E E E   E E E E E E E E
|---------------|-3--3-3--3-3-3-|-3--3-3--3-3-3-|-----------------||
|-5--5-5--5-5-5-|-x--x-x--x-x-x-|-x--x-x--x-x-x-|-----------------||
|-5--5-5--5-5-5-|-5--5-5--5-5-5-|-5--5-5--5-5-5-|-----------------||
|-3--3-3--3-3-3-|-3--3-3--3-3-3-|-3--3-3--3-3-3-|-----------------||
|---------------|---------------|---------------|-0-0-0-0-0-0-0-0-||
|---------------|---------------|---------------|-0-0-0-0-0-0-0-0-||
|
| Gtr II
|                                                 PM------------|
| Q  E Q  E E E   Q  E Q  E E E   Q  E Q  E E E   E E E E E E E E
|---------------|---------------|---------------|-----------------||
|---------------|---------------|---------------|-----------------||
|-5--5-5--5-5-5-|-5--5-5--5-5-5-|-5--5-5--5-5-5-|-----------------||
|-3--3-3--3-3-3-|-3--3-3--3-3-3-|-3--3-3--3-3-3-|-----------------||
|-3--3-3--3-3-3-|-3--3-3--3-3-3-|-3--3-3--3-3-3-|-0-0-0-0-0-0-0-0-||
|-3--3-3--3-3-3-|-3--3-3--3-3-3-|-3--3-3--3-3-3-|-0-0-0-0-0-0-0-0-||


 "I hope you know I tried.."
  I need bacardi Q=151
  Cadd11/Bb
  Gtr I
   PM|      PM--|            PM-|      PM--|
   E  E  E  E E  E  E  E     E   E  E  E E  E  E  E
|------------------------|--------------------------|
|------------------10----|--------------------10----|
|-------12------------12-|---------12------------12-|
|--9-10----10-9-10-------|---9--10----10-9-10-------|
|------------------------|--------------------------|
|------------------------|--------------------------|
|
| Gtr II
|  W                        +W
|------------------------|--------------------------|
|------------------------|--------------------------|
|--9---------------------|--(9)---------------------|
|-10---------------------|-(10)---------------------|
|--8---------------------|--(8)---------------------|
|--8---------------------|--(8)---------------------|
|
| Gtr VI
|  W                         W
|------------------------|--------------------------|
|------------------------|--------------------------|
|------------------------|--------------------------|
|------------------------|--------------------------|
|------------------------|--------------------------|
|------------------------|--------------------------|


    PM-|      PM--|            PM-|      PM--|
    E   E  E  E E  E  E  E     E   E  E  E E  E  E  E
|--------------------------|--------------------------||
|--------------------10----|--------------------10----||
|---------12------------12-|---------12------------12-||
|---9--10----10-9-10-------|---9--10----10-9-10-------||
|--------------------------|--------------------------||
|--------------------------|--------------------------||
|
|  +W                         +W
|--------------------------|--------------------------||
|--------------------------|--------------------------||
|--(9)---------------------|--(9)---------------------||
|-(10)---------------------|-(10)---------------------||
|--(8)---------------------|--(8)---------------------||
|--(8)---------------------|--(8)---------------------||
|
|                              TP
|   W                          W
|--------------------------|--------------------------||
|--------------------------|--------------------------||
|--------------------------|--------------------------||
|--------------------------|---x\---------------------||
|--------------------------|---x\---------------------||
|--------------------------|---x\---------------------||


  Cadd11/Bb          Bbsus2      Cadd11/Bb
  Gtr I
   >                  >           >
   W                  E  E  E  E  E  E  E  E
|------------------|-20-20-20-20-19-19-19-19-|
|-20---------------|-------------------------|
|------------------|-------------------------|
|------------------|-------------------------|
|------------------|-------------------------|
|------------------|-------------------------|
|
| Gtr II
|  Q   Q  E  Q   E    E  E  E  E  E  E  E  E
|------------------|-------------------------|
|------------------|-------------------------|
|--9---9-----9---9-|-10-10-10-10--9--9--9--9-|
|-10--10----10--10-|-10-10-10-10-10-10-10-10-|
|--8---8-----8---8-|--8--8--8--8--8--8--8--8-|
|--8---8-----8---8-|--8--8--8--8--8--8--8--8-|


                            Bbsus2      Cadd11/Bb
   >                         >           >
   E  E  E  E  E  E  E  E    E  E  E  E  E  E  E  E
|-------------------------|-20-20-20-20-19-19-19-19-|
|-20-20-20-20-20-20-20-20-|-------------------------|
|-------------------------|-------------------------|
|-------------------------|-------------------------|
|-------------------------|-------------------------|
|-------------------------|-------------------------|
|
|  Q     Q     E  Q     E    E  E  E  E  E  E  E  E
|-------------------------|-------------------------|
|-------------------------|-------------------------|
|--9-----9--------9-----9-|-10-10-10-10--9--9--9--9-|
|-10----10-------10----10-|-10-10-10-10-10-10-10-10-|
|--8-----8--------8-----8-|--8--8--8--8--8--8--8--8-|
|--8-----8--------8-----8-|--8--8--8--8--8--8--8--8-|


  N.C.
   >
   W                         +W
|-19----------------------|-(19)----------------------|
|-------------------------|---------------------------|
|-------------------------|---------------------------|
|-------------------------|---------------------------|
|-------------------------|---------------------------|
|-------------------------|---------------------------|
|
|  PM|      PM---|            PM-|      PM---|
|  E  E  E  E  E  E  E  E     E   E  E  E  E  E  E  E
|-------------------------|---------------------------|
|-------13----------12-13-|---------13----------12-13-|
|-12-14----14-12-14-------|--12--14----14-12-14-------|
|-------------------------|---------------------------|
|-------------------------|---------------------------|
|-------------------------|---------------------------|


   >
   W                         +W
|-------------------------|---------------------------|
|-20----------------------|-(20)----------------------|
|-------------------------|---------------------------|
|-------------------------|---------------------------|
|-------------------------|---------------------------|
|-------------------------|---------------------------|
|
|  PM|      PM---|            PM-|      PM---|
|  E  E  E  E  E  E  E  E     E   E  E  E  E  E  E  E
|-------------------------|---------------------------|
|-------13----------12-13-|---------13----------12-13-|
|-12-14----14-12-14-------|--12--14----14-12-14-------|
|-------------------------|---------------------------|
|-------------------------|---------------------------|
|-------------------------|---------------------------|


  Cadd11/Bb          Bbsus2      Cadd11/Bb
   >                  >           >
   W                  E  E  E  E  E  E  E  E
|------------------|-20-20-20-20-19-19-19-19-|
|-20---------------|-------------------------|
|------------------|-------------------------|
|------------------|-------------------------|
|------------------|-------------------------|
|------------------|-------------------------|
|
|  Q   Q  E  Q   E    E  E  E  E  E  E  E  E
|------------------|-------------------------|
|------------------|-------------------------|
|--9---9-----9---9-|-10-10-10-10--9--9--9--9-|
|-10--10----10--10-|-10-10-10-10-10-10-10-10-|
|--8---8-----8---8-|--8--8--8--8--8--8--8--8-|
|--8---8-----8---8-|--8--8--8--8--8--8--8--8-|


                            Bbsus2      Cadd11/Bb
   >                         >           >
   E  E  E  E  E  E  E  E    E  E  E  E  E  E  E  E
|-------------------------|-20-20-20-20-19-19-19-19-|
|-20-20-20-20-20-20-20-20-|-------------------------|
|-------------------------|-------------------------|
|-------------------------|-------------------------|
|-------------------------|-------------------------|
|-------------------------|-------------------------|
|
|  Q     Q     E  Q     E    E  E  E  E  E  E  E  E
|-------------------------|-------------------------|
|-------------------------|-------------------------|
|--9-----9--------9-----9-|-10-10-10-10--9--9--9--9-|
|-10----10-------10----10-|-10-10-10-10-10-10-10-10-|
|--8-----8--------8-----8-|--8--8--8--8--8--8--8--8-|
|--8-----8--------8-----8-|--8--8--8--8--8--8--8--8-|


  N.C.
   >
   W                        +W
|-19---------------------|-(19)---------------------|
|------------------------|--------------------------|
|------------------------|--------------------------|
|------------------------|--------------------------|
|------------------------|--------------------------|
|------------------------|--------------------------|
|
|  PM|      PM--|            PM-|      PM--|
|  E  E  E  E E  E  E  E     E   E  E  E E  E  E  E
|------------------------|--------------------------|
|------------------10----|--------------------10----|
|-------12------------12-|---------12------------12-|
|--9-10----10-9-10-------|---9--10----10-9-10-------|
|------------------------|--------------------------|
|------------------------|--------------------------|


   >
   W                        +W
|------------------------|--------------------------|
|-20---------------------|-(20)---------------------|
|------------------------|--------------------------|
|------------------------|--------------------------|
|------------------------|--------------------------|
|------------------------|--------------------------|
|
|  PM|      PM--|            PM-|      PM--|
|  E  E  E  E E  E  E  E     E   E  E  E E  E  E  E
|------------------------|--------------------------|
|------------------10----|--------------------10----|
|-------12------------12-|---------12------------12-|
|--9-10----10-9-10-------|---9--10----10-9-10-------|
|------------------------|--------------------------|
|------------------------|--------------------------|


  Cadd11/Bb          Bbsus2      Cadd11/Bb
   >                  >           >
   W                  E  E  E  E  E  E  E  E
|------------------|-20-20-20-20-19-19-19-19-|
|-20---------------|-------------------------|
|------------------|-------------------------|
|------------------|-------------------------|
|------------------|-------------------------|
|------------------|-------------------------|
|
|  Q   Q  E  Q   E    E  E  E  E  E  E  E  E
|------------------|-------------------------|
|------------------|-------------------------|
|--9---9-----9---9-|-10-10-10-10--9--9--9--9-|
|-10--10----10--10-|-10-10-10-10-10-10-10-10-|
|--8---8-----8---8-|--8--8--8--8--8--8--8--8-|
|--8---8-----8---8-|--8--8--8--8--8--8--8--8-|


                            Bbsus2      Cadd11/Bb
   >                         >           >
   E  E  E  E  E  E  E  E    E  E  E  E  E  E  E  E
|-------------------------|-20-20-20-20-19-19-19-19-|
|-20-20-20-20-20-20-20-20-|-------------------------|
|-------------------------|-------------------------|
|-------------------------|-------------------------|
|-------------------------|-------------------------|
|-------------------------|-------------------------|
|
|  Q     Q     E  Q     E    E  E  E  E  E  E  E  E
|-------------------------|-------------------------|
|-------------------------|-------------------------|
|--9-----9--------9-----9-|-10-10-10-10--9--9--9--9-|
|-10----10-------10----10-|-10-10-10-10-10-10-10-10-|
|--8-----8--------8-----8-|--8--8--8--8--8--8--8--8-|
|--8-----8--------8-----8-|--8--8--8--8--8--8--8--8-|


  N.C.
   >
   W                         +W
|-19----------------------|-(19)----------------------|
|-------------------------|---------------------------|
|-------------------------|---------------------------|
|-------------------------|---------------------------|
|-------------------------|---------------------------|
|-------------------------|---------------------------|
|
|  PM|      PM---|            PM-|      PM---|
|  E  E  E  E  E  E  E  E     E   E  E  E  E  E  E  E
|-------------------------|---------------------------|
|-------13----------12-13-|---------13----------12-13-|
|-12-14----14-12-14-------|--12--14----14-12-14-------|
|-------------------------|---------------------------|
|-------------------------|---------------------------|
|-------------------------|---------------------------|


   >
   W                         +W
|-------------------------|---------------------------||
|-20----------------------|-(20)----------------------||
|-------------------------|---------------------------||
|-------------------------|---------------------------||
|-------------------------|---------------------------||
|-------------------------|---------------------------||
|
|  PM|      PM---|            PM-|      PM---|
|  E  E  E  E  E  E  E  E     E   E  E  E  E  E  E  E
|-------------------------|---------------------------||
|-------13----------12-13-|---------13----------12-13-||
|-12-14----14-12-14-------|--12--14----14-12-14-------||
|-------------------------|---------------------------||
|-------------------------|---------------------------||
|-------------------------|---------------------------||


   Outro
    N.C.
    Gtr IV
     PM|      PM---|           PM|      PM---|
     E  E  E  E  E  E  E  E    E  E  E  E  E  E  E  E
||--------------------------|-------------------------|
||o-------13----------12-13-|-------13----------12-13-|
||--12-14----14-12-14-------|-12-14----14-12-14-------|
||--------------------------|-------------------------|
||o-------------------------|-------------------------|
||--------------------------|-------------------------|
|
|   Gtr V
|    PM|      PM---|           PM|      PM---|
|    E  E  E  E  E  E  E  E    E  E  E  E  E  E  E  E
||--------------------------|-------------------------|
||o-------------------10----|-------------------10----|
||--------12-------------12-|-------12-------------12-|
||---9-10----10--9-10-------|--9-10----10--9-10-------|
||o-------------------------|-------------------------|
||--------------------------|-------------------------|


   PM|      PM---|           PM|      PM---|
   E  E  E  E  E  E  E  E    E  E  E  E  E  E  E  E
|-------------------------|---------------------------||
|-------13----------12-13-|-------13----------12-13--o||
|-12-14----14-12-14-------|-12-14----14-12-14---------||
|-------------------------|---------------------------||
|-------------------------|--------------------------o||
|-------------------------|---------------------------||
|
|  PM|      PM---|           PM|      PM---|
|  E  E  E  E  E  E  E  E    E  E  E  E  E  E  E  E
|-------------------------|---------------------------||
|-------------------10----|-------------------10-----o||
|-------12-------------12-|-------12-------------12---||
|--9-10----10--9-10-------|--9-10----10--9-10---------||
|-------------------------|--------------------------o||
|-------------------------|---------------------------||


  Em7
    ~~~
    W           +W            +W            +W
|---0--------|--(0)--------|--(0)--------|--(0)----*|
|-/15--------|-(15)--------|-(15)--------|-(15)----*|
|------------|-------------|-------------|---------*|
|------------|-------------|-------------|---------*|
|------------|-------------|-------------|---------*|
|------------|-------------|-------------|---------*|
|
|   W           +W            +W            +W
|-^-0--------|--(0)--------|--(0)--------|--(0)----*|
|-^15--------|-(15)--------|-(15)--------|-(15)----*|
|-^12--------|-(12)--------|-(12)--------|-(12)----*|
|-^14--------|-(14)--------|-(14)--------|-(14)----*|
|------------|-------------|-------------|---------*|
|------------|-------------|-------------|---------*|


Duration Legend
---------------
W - whole; H - half; Q - quarter; E - 8th; S - 16th; T - 32nd; X - 64th; a - acciaccatura
+ - note tied to previous; . - note dotted; .. - note double dotted
Uncapitalized letters represent notes that are staccato (1/2 duration)
Irregular groupings are notated above the duration line
Duration letters will always appear directly above the note/fret number it represents the
duration for.  Duration letters with no fret number below them represent rests.  Multi-
bar rests are notated in the form Wxn, where n is the number of bars to rest for.  Low
melody durations appear below the staff

Tablature Legend
----------------
 h   - hammer-on
 p   - pull-off
 b   - bend
 pb  - pre-bend
 r   - bend release (if no number after the r, then release immediately)
 /\  - slide into or out of (from/to "nowhere")
 s   - legato slide
 S   - shift slide
  - natural harmonic
[n]  - artificial harmonic
n(n) - tapped harmonic
 ~   - vibrato
 tr  - trill
 T   - tap
 TP  - trem. picking
 PM  - palm muting
\n/  - tremolo bar dip; n = amount to dip
 \n  - tremolo bar down
 n/  - tremolo bar up
/n\  - tremolo bar inverted dip
 =   - hold bend; also acts as connecting device for hammers/pulls
 <>  - volume swell (louder/softer)
 x   - on rhythm slash represents muted slash
 o   - on rhythm slash represents single note slash

Misc Legend
-----------
 |  - bar
||  - double bar
||o - repeat start
o|| - repeat end
*|  - double bar (ending)
 :  - bar (freetime)
 $  - Segno
 &  - Coda
Tempo markers -  = BPM(8/16=s8/s16), where s8 = swing 8ths, s16 = swing 16ths


***************************************************************************************
* Generated using Power Tab Editor by Brad Larsen - http://powertab.guitarnetwork.org *
***************************************************************************************
Tap to rate this tab
# A B C D E F G H I J K L M N O P Q R S T U V W X Y Z