Song name
# A B C D E F G H I J K L M N O P Q R S T U V W X Y Z

Misery Signals - Something Was Always Missing But It Never Was You tab

Guitar 1
D  :-----------------------12---------|----------------|
A  :---------10--(10)----------10-----|----------------|   (x2)
F  :------13----------(13)---------13-|----------------|
C  :----0-----------------------------|----------------|
G  :--0-------------------------------|----------------|
C  :0---------------------------------|----------------|

Guitar 2                                                      
D  :----------------------------------|----------------|
A  :----------------------------------|----------------|
F  :----------------------------------|----------------|
C  :----------------------------------|----------------|
G  :----------------------------------|----------------|
C  :----------------------------------|----------------|

Guitar 1
D  :-----------------------12---------|----------------|
A  :---------10--(10)----------10-----|----------------|
F  :------13----------(13)---------13-|----------------|
C  :----0-----------------------------|----------------|
G  :--0-------------------------------|----------------|
C  :0---------------------------------|----------------|

Guitar 2                                                       
D  :----------------------------------|----------------|
A  :----------------------------------|----------------|
F  :----------------------------------|----------------|
C  :0---------------------------------|----------------|
G  :0---------------------------------|----------------|
C  :0---------------------------------|----------------|

Guitar 1
D  :-----------------------------|--------------------------|
A  :-----------------------------|--------------------------|
F  :-----------------------------|--------------------------|
C  :--0-----0-----------------0--|-----0-----0--------------|
G  :--0-----0---0-0---0-0-----0--|-----0-----0----0-0--0-0--|
C  :--0-----0---0-0---0-0-----0--|-----0-----0----0-0--0-0--|

Guitar 2                                                            
D  :-----------------------------|--------------------------|
A  :-----------------------------|--------------------------|
F  :(14)--(14)--------------(14)-|---(14)--(14)-------------|
C  :--0-----0-----------------0--|-----0-----0--------------|
G  :--0-----0---0-0---0-0-----0--|-----0-----0----0-0--0-0--|
C  :--0-----0---0-0---0-0-----0--|-----0-----0----0-0--0-0--|

Guitar 1
D  :-----------------------------|--------------------------|
A  :-----------------------------|--------------------------|
F  :-----------------------------|--------------------------|
C  :--0-----0-----------------0--|-----0-----0--------------|
G  :--0-----0---0-0---0-0-----0--|-----0-----0----0-0--0-0--|
C  :--0-----0---0-0---0-0-----0--|-----0-----0----0-0--0-0--|

Guitar 2                                                            
D  :-----------------------------|--------------------------|
A  :-----------------------------|--------------------------|
F  :(14)--(14)--------------(14)-|---(14)--(14)-------------|
C  :--0-----0-----------------0--|-----0-----0--------------|
G  :--0-----0---0-0---0-0-----0--|-----0-----0----0-0--0-0--|
C  :--0-----0---0-0---0-0-----0--|-----0-----0----0-0--0-0--|

Guitar 1
D  :-----------------------------|------------------------------|
A  :-----------------------------|------------------------------|
F  :-----------------------------|------------------------------|
C  :--0-----0-----------------0--|-----0-----0------------------|
G  :--0-----0---0-0---0-0-----0--|-----0-----0--------0-0--0-0--|
C  :--0-----0---0-0---0-0-----0--|-----0-----0--------0-0--0-0--|

Guitar 2                                                                
D  :-----------------------------|------------------------------|
A  :-----------------------------|------------------------------|
F  :(14)--(14)--------------(14)-|---(14)--(14)-----------------|
C  :--0-----0-----------------0--|-----0-----0------------------|
G  :--0-----0---0-0---0-0-----0--|-----0-----0--------0-0--0-0--|
C  :--0-----0---0-0---0-0-----0--|-----0-----0--------0-0--0-0--|


Guitar 1
D  :-----------------------------|
A  :-----------------------------|
F  :-----------------------------|
C  :--0-----0-----------------0--|
G  :--0-----0---0-0---0-0-----0--|
C  :--0-----0---0-0---0-0-----0--|

Guitar 2                                 
D  :-----------------------------|
A  :-----------------------------|
F  :(14)--(14)--------------(14)-|
C  :--0-----0-----------------0--|
G  :--0-----0---0-0---0-0-----0--|
C  :--0-----0---0-0---0-0-----0--|

Guitar 1
D  :------------------------------------------------------|
A  :------------------------------------------------------|
F  :------------------------------------------------------|
C  :-----0-----0------------------------------------------|
G  :-----0-----0-------0----0----------0----0-------------|
C  :-----0-----0-------0----0----------0----0-------------|

Guitar 2                                                          
D  :------------------------------------------------------|
A  :------------------------------------------------------|
F  :---(14)--(14)-----------------------------------------|
C  :-----0-----0------------------------------------------|
G  :-----0-----0-------0----0----------0----0-------------|
C  :-----0-----0-------0----0----------0----0-------------|

Guitar 1
D  :-------------------------------|----------------------------|
A  :-------------------------------|------------------------14--|
F  :-14----13---13-------------14--|---13----13-----------------|
C  :-------------------16----------|-------------------16----*--|
G  :-------------------------------|----------------------------|
C  :-------------------------------|----------------------------|

Guitar 2                                                                
D  :-------------------------------|----------------------------|
A  :-------------------------------|----------------------------|
F  :(14)--(14)----------------(14)-|--(14)--(14)----------------|
C  :--0-----0-------------------0--|----0-----0-----------------|
G  :--0-----0----0-0----0-0-----0--|----0-----0----0-0----0--0--|
C  :--0-----0----0-0----0-0-----0--|----0-----0----0-0----0--0--|

Guitar 1
D  :----------------------------------|-----------------------12----------|
A  :----------------------------------|---------------------------10------|
F  :-13-------------------------------|---13----14-------------*-------13-|
C  :-------16---16-----14------14-h16-|-----------------------------------|
G  :----------------------------------|-----------------------------------|
C  :----------------------------------|-----------------------------------|

Guitar 2                                                                          
D  :----------------------------------|-----------------------------------|
A  :----------------------------------|-----------------------------------|
F  :(14)--(14)----------------(14)----|--(14)--(14)-----------------------|
C  :--0-----0-------------------0-----|----0-----0------------------------|
G  :--0-----0----0-0----0-0-----0-----|----0-----0--------0-0------0-0----|
C  :--0-----0----0-0----0-0-----0-----|----0-----0--------0-0------0-0----|

Guitar 1
D  :/14----12------------------14-h16-|---17-----*-----*----------12-|
A  :--*---------10--------------*-----|---------17-----*---10--------|
F  :--*----------------13-------*-----|---------------13-------------|
C  :----------------------------------|------------------------------|
G  :----------------------------------|------------------------------|
C  :----------------------------------|------------------------------|

Guitar 2                                                                     
D  :----------------------------------|------------------------------|
A  :----------------------------------|------------------------------|
F  :(14)--(14)----------------(14)----|--(14)--(14)------------------|
C  :--0-----0-------------------0-----|----0-----0-------------------|
G  :--0-----0----0-0----0-0-----0-----|----0-----0-----0-0----0-0----|
C  :--0-----0----0-0----0-0-----0-----|----0-----0-----0-0----0-0----|

Guitar 1
D  :/14----12------------------14-h16-|---17-----*---------*----------12-|
A  :--*---------10--------------*-----|---------17---------*---10--------|
F  :--*----------------13-------*-----|-------------------13-------------|
C  :----------------------------------|----------------------------------|
G  :----------------------------------|----------------------------------|
C  :----------------------------------|----------------------------------|

Guitar 2                                                                         
D  :----------------------------------|----------------------------------|
A  :----------------------------------|----------------------------------|
F  :(14)--(14)----------------(14)----|--(14)--(14)----------------------|
C  :--0-----0-------------------0-----|----0-----0-----------------------|
G  :--0-----0----0-0----0-0-----0-----|----0-----0---------0-0----0-0----|
C  :--0-----0----0-0----0-0-----0-----|----0-----0---------0-0----0-0----|

Guitar 1
D  :------------------------------------|----------------------------------|
A  :------------------------------------|----------------------------------|
F  :------------------------------------|----------------------------------|
C  :--0-----0------------------------0--|------0------0--------------------|
G  :--0-----0-----0-0---*--0-0--*----0--|------0------0------0-0*-----0-0*-|
C  :--0-----0-----0-0---*--0-0--*----0--|------0------0------0-0*-----0-0*-|

Guitar 2                                                                           
D  :------------------------------------|----------------------------------|
A  :------------------------------------|----------------------------------|
F  :(14)--(14)---------------------(14)-|----(14)---(14)-------------------|
C  :--0-----0------------------------0--|------0------0--------------------|
G  :--0-----0-----0-0---*--0-0--*----0--|------0------0------0-0*-----0-0*-|
C  :--0-----0-----0-0---*--0-0--*----0--|------0------0------0-0*-----0-0*-|

Guitar 1
D  :----------------------------------|
A  :----------------------------------|
F  :----------------------------------|
C  :--0-----0-------0-----------------|
G  :--0-----0-------0------0-0--*--0-0|
C  :--0-----0-------0------0-0--*--0-0|

Guitar 2                                      
D  :----------------------------------|
A  :----------------------------------|
F  :(14)--(14)----(14)----------------|
C  :--0-----0-------0-----------------|
G  :--0-----0-------0------0-0--*--0-0|
Tap to rate this tab
 
# A B C D E F G H I J K L M N O P Q R S T U V W X Y Z