Song name
# A B C D E F G H I J K L M N O P Q R S T U V W X Y Z

Misery Signals - The Year Summer Ended In June tab

D|--------------------|---------------------|--------------------|
A|--------------------|---------------------|--------------------|
F|-----7--------------|-----7-------8-------|----7---------------|
C|-------------6------|---------------------|--------------6-----|
G|-----5-------5------|-----5-------6-------|----5---------5-----|
C|o--------o----------|o----------o---------|o-----------o-------|

D|--------------------|-------------|-----------------|-----------------|
A|--------------------|-------------|-----------------|-----------------|
F|-----7-------8------|------7------|-----------------|-----------------|
C|--------------------|-------------|-----------------|-----------------|
G|-----5-------6------|------5------|55-55-5555-55-55-|33-33-3333-33-33-|
C|o---------o---------|o------------|55o55o5555o55o55-|33o33o3333o33o33-|

D|--------------------|--------------------|------------------|
A|--------------------|--------------------|------------------|
F|---------5----------|---------5----------|------------------|
C|-----------7--5-----|-----------7--5-7---|------------------|
G|55-55------------7--|55-55---------------|33-33-3333-33-33--|
C|55o55---------------|55o55---------------|33o33o3333o33o33--|

A|--------------------|--------------------|------------------|
F|--------------------|--------------------|------------------|
C|-----------7--------|------------7-------|------------------|
G|55-55--------8--7---|55-55---------8-7-8-|33-33-3333-33-33--|
C|55o55-------------10|55o55---------------|33o33o3333o33o33--|

D|-------------------------------------|--------------------------------|
A|-------------------------------------|--------------------------------|
F|-------------------------------------|--------------------------------|
C|-------------------------------------|--------------------------------|
G|--------0-3-5-------0-3-5-------0-3-5|1ooo4h3-1ooo4h3-1ooo4h3-1ooo4h3-|
C|0-2-3-5-------2-3-5-------2-3-5------|1ooo4h3-1ooo4h3-1ooo4h3-1ooo4h3-|

D|--------------------------------|--------------------|   |--------------|
A|--------------------------------|--------------------|   |--------------|
F|--------------------------------|----9-------12------|   |------------12|
C|--------------------------------|---10-Strum-10-Strum|4x |------------10|
G|1ooo4h3-1ooo4h3-1ooo4h3-1ooo4h3-|----8--------8------|   |-------------8|
C|1ooo4h3-1ooo4h3-1ooo4h3-1ooo4h3-|--------------------|   |oooooooooooo--|

D|----------------|-----------------|-----------------|----------------|
A|----------------|-----------------|-----------------|----------------|
F|----------------|--------5--------|---------5-------|----------------|
C|----------------|----------7--5---|-----------7-5-7-|----------------|
G|33-33-3333-33-33|55-55----------7-|55-55------------|33-33-3333-33-33|
C|33o33o3333o33o33|55o55------------|55o55------------|33o33o3333o33o33|


D|-----------------|-----------------|----------------|--------|
A|-----------------|-----------------|----------------|--------|
F|-----------------|-----------------|----------------|----12--|
C|---------7-------|----------7------|----------------|----10--|
G|55-55------8-7---|55-55-------8-7-8|33-33-3333-33-33|-----8--|
C|55o55---------10-|55o55------------|33o33o3333o33o33|--------|

D|-----------------|-----------------|-----------------|-----------------|
A|-----------------|-----------------|-----------------|-----------------|
F|-----------------|-----------------|-----------------|-----------------|
C|-----------------|-----------------|-----------------|-----------------|2X
G|ooo-oooo-ooo-oooo|ooo-oooo-ooo-oooo|ooo-oooo-ooo-oooo|ooo-oooo-ooo-oooo|
C|ooo-oooo-ooo-oooo|ooo-oooo-ooo-oooo|ooo-oooo-ooo-oooo|ooo-oooo-ooo-oooo|

D|
A|
F|
C|
G|
C|


Tap to rate this tab
# A B C D E F G H I J K L M N O P Q R S T U V W X Y Z