Song name
# A B C D E F G H I J K L M N O P Q R S T U V W X Y Z

Misfits - Skulls tab

Very great, and easy song. I hope you enjoy playing it ;D.
~Dday33

Intro
|---------------------------------|
|---------------------------------|
|---------6-6-6-6-8-8-8-8---------|
|-4-4-4-4-6-6-6-6-8-8-8-8-9-9-9-9-| (4x)
|-4-4-4-4-4-4-4-4-6-6-6-6-9-9-9-9-|
|-2-2-2-2-----------------7-7-7-7-|

Chorus
|-----------------------------------------------------------|
|-----------------------------------------------------------|
|---------------4-4-4-4-4-4-4---------------4-4-4-4-6-6-6-6-|
|-4-4-4-4-4-4-4-4-4-4-4-4-4-4-4-4-4-4-4-4-4-4-4-4-4-6-6-6-6-|
|-4-4-4-4-4-4-4-2-2-2-2-2-2-2-4-4-4-4-4-4-4-2-2-2-2-4-4-4-4-|
|-2-2-2-2-2-2-2---------------2-2-2-2-2-2-2-----------------|

|---------------------------------------------------------|
|---------------------------------------------------------|
|---------------4-4-4-4-4-4-4---------------4-4-4-4-6-7-7-|
|-4-4-4-4-4-4-4-4-4-4-4-4-4-4-4-4-4-4-4-4-4-4-4-4-4-6-7-7-|
|-4-4-4-4-4-4-4-2-2-2-2-2-2-2-4-4-4-4-4-4-4-2-2-2-2-4-5-5-|
|-2-2-2-2-2-2-2---------------2-2-2-2-2-2-2---------------|

Intro/First Verse
|---------------------------------|
|---------------------------------|
|---------6-6-6-6-8-8-8-8---------|
|-4-4-4-4-6-6-6-6-8-8-8-8-9-9-9-9-| (4x)
|-4-4-4-4-4-4-4-4-6-6-6-6-9-9-9-9-|
|-2-2-2-2-----------------7-7-7-7-|

Chorus
|-----------------------------------------------------------|
|-----------------------------------------------------------|
|---------------4-4-4-4-4-4-4---------------4-4-4-4-6-6-6-6-|
|-4-4-4-4-4-4-4-4-4-4-4-4-4-4-4-4-4-4-4-4-4-4-4-4-4-6-6-6-6-|
|-4-4-4-4-4-4-4-2-2-2-2-2-2-2-4-4-4-4-4-4-4-2-2-2-2-4-4-4-4-|
|-2-2-2-2-2-2-2---------------2-2-2-2-2-2-2-----------------|

|---------------------------------------------------------|
|---------------------------------------------------------|
|---------------4-4-4-4-4-4-4---------------4-4-4-4-6-7-7-|
|-4-4-4-4-4-4-4-4-4-4-4-4-4-4-4-4-4-4-4-4-4-4-4-4-4-6-7-7-|
|-4-4-4-4-4-4-4-2-2-2-2-2-2-2-4-4-4-4-4-4-4-2-2-2-2-4-5-5-|
|-2-2-2-2-2-2-2---------------2-2-2-2-2-2-2---------------|

Bridge
|-----------------------------------------------------|
|-----------------------------------------------------|
|-----------------------------------------------------| X2
|-8-8-8-8-4-4-6-6-6-8-8-8-8-4-4-6-6-6-8-8-8-8-4-4-6-6-|
|-8-8-8-8-4-4-6-6-6-8-8-8-8-4-4-6-6-6-8-8-8-8-4-4-6-6-|
|-6-6-6-6-2-2-4-4-4-6-6-6-6-2-2-4-4-4-6-6-6-6-2-2-4-4-|

|-------------------------|
|-------------------------|
|-------------------------|
|-8-8-8-8-4-4-6-6-6-8-----|
|-8-8-8-8-4-4-6-6-6-8-----|
|-6-6-6-6-2-2-4-4-4-6(X8)-|

Chorus
|-----------------------------------------------------------|
|-----------------------------------------------------------|
|---------------4-4-4-4-4-4-4---------------4-4-4-4-6-6-6-6-|
|-4-4-4-4-4-4-4-4-4-4-4-4-4-4-4-4-4-4-4-4-4-4-4-4-4-6-6-6-6-|
|-4-4-4-4-4-4-4-2-2-2-2-2-2-2-4-4-4-4-4-4-4-2-2-2-2-4-4-4-4-|
|-2-2-2-2-2-2-2---------------2-2-2-2-2-2-2-----------------|

|---------------------------------------------------------|
|---------------------------------------------------------|
|---------------4-4-4-4-4-4-4---------------4-4-4-4-6-7-7-|
|-4-4-4-4-4-4-4-4-4-4-4-4-4-4-4-4-4-4-4-4-4-4-4-4-4-6-7-7-|
|-4-4-4-4-4-4-4-2-2-2-2-2-2-2-4-4-4-4-4-4-4-2-2-2-2-4-5-5-|
|-2-2-2-2-2-2-2---------------2-2-2-2-2-2-2---------------|

Outro
|---------------------------|
|---------------------------|
|-6--6--6--6--6--6--6--6--6-|
|-6--6--6--6--6--6--6--6--6-|
|-4--4--4--4--4--4--4--4--4-|
|---------------------------|
Tap to rate this tab
# A B C D E F G H I J K L M N O P Q R S T U V W X Y Z