Guitaretab - guitar tabs
Song name
# A B C D E F G H I J K L M N O P Q R S T U V W X Y Z

Misfits - Die Die My Darling tab

Intro

Rest for eight beats then

E-------------|-------------|-----------|-----------|
B-------------|-------------|-----------|-----------|
G-4--4--4--4--|-4--4--4--4--|-----------|-----------|
D-4--4--4--4--|-4--4--4--4--|-5-555555--|-44444444--|
A-2--2--2--2--|-2--2--2--2--|-5-555555--|-44444444--|
E-------------|-------------|-3-333333--|-22222222--|


Chorus 

E-------------|-------------|-----------|-----------| X2
B-------------|-------------|-----------|-----------|
G-4--4--4--4--|-4--4--4--4--|-----------|-----------|
D-4--4--4--4--|-4--4--4--4--|-5-555555--|-44444444--|
A-2--2--2--2--|-2--2--2--2--|-5-555555--|-44444444--|
E-------------|-------------|-3-333333--|-22222222--|
Hold the Em chord for eight beats

E-0~~~--|-----------|-------------|------0~--|-----------|----|
B-0~~~--|-----------|-------------|------0~--|-----------|----|
G-0~~~--|-44444444--|-444/66\444--|----------|-----------|----|
D-2~~~--|-44444444--|-xxx/xx\xxx--|-2~-------|-55555555--|-5--|
A-2~~~--|-22222222--|-222/44\222--|-2~-------|-55555555--|-5--|
E-0~~~--|-----------|-------------|-0~-------|-33333333--|-3--|
          ........

Verse

E-----------|-----------|-----------|------------|
B-----------|-----------|-----------|------------|
G-44444444--|-44444444--|-----------|-7777-6666--|
D-44444444--|-44444444--|-5-555555--|-7777-6666--|
A-22222222--|-22222222--|-5-555555--|-5555-4444--|
E-----------|-----------|-3-333333--|------------|
  ........    ........      ......    .... ....


E-----------|-----------|-----------|------------| X5
B-----------|-----------|-----------|------------|
G-4-444444--|-44444444--|-----------|-7777-6666--|
D-4-444444--|-44444444--|-5-555555--|-7777-6666--|
A-2-222222--|-22222222--|-5-555555--|-5555-4444--|
E-----------|-----------|-3-333333--|------------|
    ......    ........      ......    .... ....


Chorus


E-------------|-------------|-----------|-----------| X2
B-------------|-------------|-----------|-----------|
G-4--4--4--4--|-4--4--4--4--|-----------|-----------|
D-4--4--4--4--|-4--4--4--4--|-5-555555--|-44444444--|
A-2--2--2--2--|-2--2--2--2--|-5-555555--|-44444444--|
E-------------|-------------|-3-333333--|-22222222--|
Hold the Em chord for eight beats
[ Tab from: http://www.guitaretab.com/m/misfits/12593.html ]
E-0~~~--|-----------|--------------|-------0~--|-----------|-----------|
B-0~~~--|-----------|--------------|-------0~--|-----------|-----------|
G-0~~~--|-44444444--|-4/6-6/7-7\4--|-----------|-----------|-----------|
D-2~~~--|-44444444--|-x/x-x/x-x\x--|-2~--------|-55555555--|-55555555--|
A-2~~~--|-22222222--|-2/4-4/5-5\2--|-2~--------|-55555555--|-55555555--|
E-0~~~--|-----------|--------------|-0~--------|-33333333--|-33333333--|
          ........                               ........    ........


Verse

E-----------|-----------|-----------|------------|
B-----------|-----------|-----------|------------|
G-44444444--|-44444444--|-----------|-7777-6666--|
D-44444444--|-44444444--|-5-555555--|-7777-6666--|
A-22222222--|-22222222--|-5-555555--|-5555-4444--|
E-----------|-----------|-3-333333--|------------|
  ........    ........      ......    .... ....


E-----------|-----------|-----------|------------| X5
B-----------|-----------|-----------|------------|
G-4-444444--|-44444444--|-----------|-7777-6666--|
D-4-444444--|-44444444--|-5-555555--|-7777-6666--|
A-2-222222--|-22222222--|-5-555555--|-5555-4444--|
E-----------|-----------|-3-333333--|------------|
    ......    ........      ......    .... ....


E-------------|-------------|-----------|-----------| X2
B-------------|-------------|-----------|-----------|
G-4--4--4--4--|-4--4--4--4--|-----------|-----------|
D-4--4--4--4--|-4--4--4--4--|-5-555555--|-44444444--|
A-2--2--2--2--|-2--2--2--2--|-5-555555--|-44444444--|
E-------------|-------------|-3-333333--|-22222222--|
Hold the Em chord for eight beats

E-0~~~--|-----------|----------------|-------0~--|-----------|----|
B-0~~~--|-----------|----------------|-------0~--|-----------|----|
G-0~~~--|-44444444--|-4/6-6/7-7\9-9--|-----------|-----------|----|
D-2~~~--|-44444444--|-x/x-x/x-x\x-x--|-2~--------|-55555555--|-5--|
A-2~~~--|-22222222--|-2/4-4/5-5\7-7--|-2~--------|-55555555--|-5--|
E-0~~~--|-----------|----------------|-0~--------|-33333333--|-3--|
          ........                                 ........    



Outro

E-------------|-------------|-------------|------|
B-------------|-------------|-------------|------|
G-4--4--4--4--|-4--4--4--4--|-4--4--4--4--|-4~~--|
D-4--4--4--4--|-4--4--4--4--|-4--4--4--4--|-4~~--|
A-2--2--2--2--|-2--2--2--2--|-2--2--2--2--|-2~~--|
E-------------|-------------|-------------|------| 


Hold the last B5 chord for four beats.
Related for Die Die My Darling tab
×
Die Die My Darling