Guitaretab - guitar tabs
Song name
# A B C D E F G H I J K L M N O P Q R S T U V W X Y Z

Misfits - We Are 138 tab

----------------------------------------------------------------------------
                       We Are 138- The Misfits
----------------------------------------------------------------------------

Tabbed by: Chris


Tuning: Standard (EADGBe)

INTRO
e:----------|
b:----------|
g:----------|
D:-14~~~~~--|
A:-14~~~~~--|
E:-12~~~~~--|
____________________________________________________________________________INTRO-PLAY TWICE.
e|---------------------------|
B|---------------------------|
G|---------------------------|
D|-14-14-14-14-14-14--10-12--|
A|-14-14-14-14-14-14--10-12--|
E|-12-12-12-12-12-12--8--10--|

   *PALM MUTE WHILE PLAYING THIS PART*
e|--------------------------------------|
B|--------------------------------------|
G|--------------------------------------|
D|-10-10-10-10-10-10-12-12-12-12-12-12--|
A|-10-10-10-10-10-10-12-12-12-12-12-12--|
E|-8--8--8--8--8--8--10-10-10-10-10-10--|
____________________________________________________________________________

VERSE-PLAY FOUR TIMES. 
e|---------------------------|
B|---------------------------|
G|---------------------------| *PLAY FASTER THAN INTRO*      
D|-14-14-14-14-14-14--10-12--|
A|-14-14-14-14-14-14--10-12--|
E|-12-12-12-12-12-12--8--10--|

   *PALM MUTE WHILE PLAYING THIS PART*
e|--------------------------------------|
B|--------------------------------------| *PLAY FASTER THAN INTRO*
G|--------------------------------------|
D|-10-10-10-10-10-10-12-12-12-12-12-12--|
A|-10-10-10-10-10-10-12-12-12-12-12-12--|
E|-8--8--8--8--8--8--10-10-10-10-10-10--|
____________________________________________________________________________
VERSE-PLAY THREE TIMES
e|---------------------------|
B|---------------------------|
G|---------------------------| *PLAY FASTER THAN INTRO*      
D|-14-14-14-14-14-14--10-12--|
A|-14-14-14-14-14-14--10-12--|
E|-12-12-12-12-12-12--8--10--|
____________________________________________________________________________CHORUS-PLAY TWO TIMES
e|--------------------------------------------------------|
B|--------------------------------------------------------|
G|--------------------------------------------------------| 
D|-14-14-14-14-14-14-14-14-14-14-14-14-14-14-14-14-14-14--|
A|-14-14-14-14-14-14-14-14-14-14-14-14-14-14-14-14-14-14--|
E|-12-12-12-12-12-12-12-12-12-12-12-12-12-12-12-12-12-12--|
[ Tab from: http://www.guitaretab.com/m/misfits/12605.html ]
e|--------------------------------------|
B|--------------------------------------| 
G|--------------------------------------|
D|-10-10-10-10-10-10-12-12-12-12-12-12--|
A|-10-10-10-10-10-10-12-12-12-12-12-12--|
E|-8--8--8--8--8--8--10-10-10-10-10-10--|
____________________________________________________________________________

SOLO
e|-11h12-11h12-11h12-11h12-11h12-11h12-11h12-11h12--|
B|--------------------------------------------------|
G|--------------------------------------------------|
D|--------------------------------------------------|
A|--------------------------------------------------|
E|--------------------------------------------------|

e|-12-12-12-12-12-12-12-12-12b(1/4)-12b(1/2)-12b(full)-12b(full)--|
B|----------------------------------------------------------------|
G|----------------------------------------------------------------|
D|----------------------------------------------------------------|
A|----------------------------------------------------------------|
E|----------------------------------------------------------------|
____________________________________________________________________________
OUTRO
e|--------------------------------------------------------|
B|--------------------------------------------------------|
G|--------------------------------------------------------|
D|-14-14-14-14-10-10-10-10-12-12-12-12-14-14-14-14-14-14--|
A|-14-14-14-14-10-10-10-10-12-12-12-12-14-14-14-14-14-14--|
E|-12-12-12-12-8--8--8--8--10-10-10-10-12-12-12-12-12-12--|

e|--------------------------------------------------------|
B|--------------------------------------------------------|
G|--------------------------------------------------------|
D|-14-14-14-14-10-10-10-10-12-12-12-12-14-14-14-14-14-14--|
A|-14-14-14-14-10-10-10-10-12-12-12-12-14-14-14-14-14-14--|
E|-12-12-12-12-8--8--8--8--10-10-10-10-12-12-12-12-12-12--|

e|--------------------------------------------------------------|
B|--------------------------------------------------------------|
G|--------------------------------------------------------------|
D|-14-14-14-14-10-10-10-10-12-12-12-12-14-14-14-14--14~~~~--14--|
A|-14-14-14-14-10-10-10-10-12-12-12-12-14-14-14-14--14~~~~--14--|
E|-12-12-12-12-8--8--8--8--10-10-10-10-12-12-12-12--12~~~~--12--|

| b  bend
| /  slide up
| \  slide down
| h  hammer-on
| p  pull-off
| ~  vibrato
| +  harmonic
| x  Mute note
============================================================================
Related for We Are 138 tab
Advertisement will be closed in 10 seconds