Song name
# A B C D E F G H I J K L M N O P Q R S T U V W X Y Z

Misfits - Death Comes Ripping tab

Intro/Main
E--------------|--------------|--------------|--------------|
B--------------|--------------|--------------|--------------|
G---------10-9-|---------10-9-|---------10-9-|---------10-9-|
D-7-7-7-7-10-9-|-7-7-7-7-10-9-|-7-7-7-7-10-9-|-7-7-7-7-10-9-|
A-7-7-7-7-8--7-|-7-7-7-7-8--7-|-7-7-7-7-8--7-|-7-7-7-7-8--7-|
E-5-5-5-5------|-5-5-5-5------|-5-5-5-5------|-5-5-5-5------|

Verse "Turn the lights down low"
E--------------|--------------|--------------|--------------|
B--------------|--------------|--------------|--------------|
G---------10-9-|---------10-9-|---------10-9-|---------10-9-|
D-7-7-7-7-10-9-|-7-7-7-7-10-9-|-7-7-7-7-10-9-|-7-7-7-7-10-9-|
A-7-7-7-7-8--7-|-7-7-7-7-8--7-|-7-7-7-7-8--7-|-7-7-7-7-8--7-|
E-5-5-5-5------|-5-5-5-5------|-5-5-5-5------|-5-5-5-5------|

"Shotgun Blast a Demon Piece Of Lead"
E-------------------------|
B-------------------------|
G-7-7-7-7-7-7-7-7-7-7-7-7-|
D-7-7-7-7-7-7-7-7-7-7-7-7-|
A-5-5-5-5-5-5-5-5-5-5-5-5-|
E-------------------------|

Main Riff
E--------------|--------------|--------------|--------------|
B--------------|--------------|--------------|--------------|
G---------10-9-|---------10-9-|---------10-9-|---------10-9-|
D-7-7-7-7-10-9-|-7-7-7-7-10-9-|-7-7-7-7-10-9-|-7-7-7-7-10-9-|
A-7-7-7-7-8--7-|-7-7-7-7-8--7-|-7-7-7-7-8--7-|-7-7-7-7-8--7-|
E-5-5-5-5------|-5-5-5-5------|-5-5-5-5------|-5-5-5-5------|

Verse "With Both Eyes Open"
E--------------|--------------|--------------|--------------|
B--------------|--------------|--------------|--------------|
G---------10-9-|---------10-9-|---------10-9-|---------10-9-|
D-7-7-7-7-10-9-|-7-7-7-7-10-9-|-7-7-7-7-10-9-|-7-7-7-7-10-9-|
A-7-7-7-7-8--7-|-7-7-7-7-8--7-|-7-7-7-7-8--7-|-7-7-7-7-8--7-|
E-5-5-5-5------|-5-5-5-5------|-5-5-5-5------|-5-5-5-5------|

Chorus "Whoa Death Comes Ripping"
E---------------------------------|---------------------------------|
B---------------------------------|---------------------------------|
G-7-7-7-7-7-7-7-7-3-3-3-3---------|-7-7-7-7-7-7-7-7-3-3-3-3---------|
D-7-7-7-7-7-7-7-7-3-3-3-3-5-5-5-5-|-7-7-7-7-7-7-7-7-3-3-3-3-5-5-5-5-|
A-5-5-5-5-5-5-5-5-1-1-1-1-5-5-5-5-|-5-5-5-5-5-5-5-5-1-1-1-1-5-5-5-5-|
E-------------------------3-3-3-3-|-------------------------3-3-3-3-|

E---------------------------------|---------------------------------|
B---------------------------------|---------------------------------|
G-7-7-7-7-7-7-7-7-3-3-3-3---------|-7-7-7-7-7-7-7-7-3-3-3-3---------|
D-7-7-7-7-7-7-7-7-3-3-3-3-5-5-5-5-|-7-7-7-7-7-7-7-7-3-3-3-3-5-5-5-5-|
A-5-5-5-5-5-5-5-5-1-1-1-1-5-5-5-5-|-5-5-5-5-5-5-5-5-1-1-1-1-5-5-5-5-|
E-------------------------3-3-3-3-|-------------------------3-3-3-3-|

Main Riff
E--------------|--------------|--------------|--------------|
B--------------|--------------|--------------|--------------|
G---------10-9-|---------10-9-|---------10-9-|---------10-9-|
D-7-7-7-7-10-9-|-7-7-7-7-10-9-|-7-7-7-7-10-9-|-7-7-7-7-10-9-|
A-7-7-7-7-8--7-|-7-7-7-7-8--7-|-7-7-7-7-8--7-|-7-7-7-7-8--7-|
E-5-5-5-5------|-5-5-5-5------|-5-5-5-5------|-5-5-5-5------|

Verse "Flesh and blood"
E--------------|--------------|--------------|--------------|
B--------------|--------------|--------------|--------------|
G---------10-9-|---------10-9-|---------10-9-|---------10-9-|
D-7-7-7-7-10-9-|-7-7-7-7-10-9-|-7-7-7-7-10-9-|-7-7-7-7-10-9-|
A-7-7-7-7-8--7-|-7-7-7-7-8--7-|-7-7-7-7-8--7-|-7-7-7-7-8--7-|
E-5-5-5-5------|-5-5-5-5------|-5-5-5-5------|-5-5-5-5------|

Chorus "Whoa Death Comes Ripping"
E---------------------------------|---------------------------------|
B---------------------------------|---------------------------------|
G-7-7-7-7-7-7-7-7-3-3-3-3---------|-7-7-7-7-7-7-7-7-3-3-3-3---------|
D-7-7-7-7-7-7-7-7-3-3-3-3-5-5-5-5-|-7-7-7-7-7-7-7-7-3-3-3-3-5-5-5-5-|
A-5-5-5-5-5-5-5-5-1-1-1-1-5-5-5-5-|-5-5-5-5-5-5-5-5-1-1-1-1-5-5-5-5-|
E-------------------------3-3-3-3-|-------------------------3-3-3-3-|

E---------------------------------|---------------------------------|
B---------------------------------|---------------------------------|
G-7-7-7-7-7-7-7-7-3-3-3-3---------|-7-7-7-7-7-7-7-7-3-3-3-3---------|
D-7-7-7-7-7-7-7-7-3-3-3-3-5-5-5-5-|-7-7-7-7-7-7-7-7-3-3-3-3-5-5-5-5-|
A-5-5-5-5-5-5-5-5-1-1-1-1-5-5-5-5-|-5-5-5-5-5-5-5-5-1-1-1-1-5-5-5-5-|
E-------------------------3-3-3-3-|-------------------------3-3-3-3-|

E---------------------------------|---------------------------------|
B---------------------------------|---------------------------------|
G-7-7-7-7-7-7-7-7-3-3-3-3---------|-7-7-7-7-7-7-7-7-3-3-3-3---------|
D-7-7-7-7-7-7-7-7-3-3-3-3-5-5-5-5-|-7-7-7-7-7-7-7-7-3-3-3-3-5-5-5-5-|
A-5-5-5-5-5-5-5-5-1-1-1-1-5-5-5-5-|-5-5-5-5-5-5-5-5-1-1-1-1-5-5-5-5-|
E-------------------------3-3-3-3-|-------------------------3-3-3-3-|

E---------------------------------|---------------------------------|
B---------------------------------|---------------------------------|
G-7-7-7-7-7-7-7-7-3-3-3-3---------|-7-7-7-7-7-7-7-7-3-3-3-3---------|
D-7-7-7-7-7-7-7-7-3-3-3-3-5-5-5-5-|-7-7-7-7-7-7-7-7-3-3-3-3-5-5-5-5-|
A-5-5-5-5-5-5-5-5-1-1-1-1-5-5-5-5-|-5-5-5-5-5-5-5-5-1-1-1-1-5-5-5-5-|
E-------------------------3-3-3-3-|-------------------------3-3-3-3-|

Main
E--------------|--------------|--------------|--------------|
B--------------|--------------|--------------|--------------|
G---------10-9-|---------10-9-|---------10-9-|---------10-9-|
D-7-7-7-7-10-9-|-7-7-7-7-10-9-|-7-7-7-7-10-9-|-7-7-7-7-10-9-|
A-7-7-7-7-8--7-|-7-7-7-7-8--7-|-7-7-7-7-8--7-|-7-7-7-7-8--7-|
E-5-5-5-5------|-5-5-5-5------|-5-5-5-5------|-5-5-5-5------|

"Whoa"         "Whoa"        "Whoa"        "Whoa"
E--------------|--------------|--------------|--------------|
B--------------|--------------|--------------|--------------|
G---------10-9-|---------10-9-|---------10-9-|---------10-9-|
D-7-7-7-7-10-9-|-7-7-7-7-10-9-|-7-7-7-7-10-9-|-7-7-7-7-10-9-|
A-7-7-7-7-8--7-|-7-7-7-7-8--7-|-7-7-7-7-8--7-|-7-7-7-7-8--7-|
E-5-5-5-5------|-5-5-5-5------|-5-5-5-5------|-5-5-5-5------|

G---|
D-7-|
A-7-|
E-5-|

Verse indicates Vocals Come in. And Just so you can't dispute the quality of this tab 
is the chords with lyrics.

A   F E (x4)

A               F E
Turn the lights down low
A                F E
And bolt the door up
A                F E
Future is coming
A                F E
Future rising up

D
Whoa

Shotgun blast, a demon piece of lead

A   F E (x4)

A              F E
With both eyes open
A         F       E
I wait up for the kill
A            F E
Feel the evil
A                  F         E
Feel the heat as I blast you open

D

Bb          G
Death comes ripping
D              Bb          G
And I know it, death comes ripping
D                    Bb          G
You feel the heat as death comes ripping
D
Rip your back out
     Bb          G
And death comes ripping out

A   F E (x4)

A              F E
Flesh and blood
A           F E
Too weak for you
A              F E
Turning it over
A                  F     E
A little too late to penetrate

D

Bb          G
Death comes ripping
D               Bb          G
And it's going, death comes ripping
D                    Bb          G
You feel the heat as death comes ripping
D
Rip your back out
Bb          G
Death comes ripping

D               Bb          G
And it's going, death comes ripping
D                    Bb          G
You feel the heat as death comes ripping
D
Rip your back out
Bb          G
Death comes ripping
D               Bb          G
And I know that death comes ripping out

A   F E (x4)

A   F E
Whoa
A   F E
Whoa
A   F E
Whoa
A   F E
Whoa

A
Tap to rate this tab
 
# A B C D E F G H I J K L M N O P Q R S T U V W X Y Z