Song name
# A B C D E F G H I J K L M N O P Q R S T U V W X Y Z

Misfits - Where Eagles Dare tab

Help us improve GuitareTab! Take a short survey!
========Where Eagles Dare========
tuning: Standard

Intro:
1|------------------------|
2|------------------------|
3|------------------------|
4|-7-7-7-7-7-7-7-7-7-7--5-|
5|-7-7-7-7-7-7-7-7-7-7--5-|
6|-5-5-5-5-5-5-5-5-5-5--3-|

---------------------------

Chorus:
1|-------------------------|
2|-------------------------|
3|-5-5-5-5-----------------|
4|-5-5-5-5--3-3-3-3--------|
5|-3-3-3-3--3-3-3-3--5-5-5-|
6|----------1-1-1-1--3-3-3-|
I aint no goddamn son ofa bitch... haha best part..
Related for Where Eagles Dare tab