Song name
# A B C D E F G H I J K L M N O P Q R S T U V W X Y Z

Misfits - Saturday Night tab

-----------------------------------------------------------------------------
			     Saturday Night - The Misfits
-----------------------------------------------------------------------------
Tabbed by: Yayo

Tuning:1\2 step down

If you listen to the song while
watching the tab you can see that it is
almost 1000% correct.

Intro
e|---------------------------------------------------------------------------|
B|---------------------------------------------------------------------------|
G|--7-------7---------7--7---------------------------------------------------|
D|--7-------7---------7--7---------9------9---------9--9------5-----5--------|
A|--5-------5---------5--5---------9------9---------9--9------5-----5--------|
E|---------------------------------7------9---------7--7------3-----3--------|

e|---------------------------------------------------------------------------|
B|---------------------------------------------------------------------------|
G|---------------------------------------------------------------------------|
D|--5--5------7--7-----------------------------------------------------------|
A|--5--5------7--7-----------------------------------------------------------|
E|--3--3------5--7-----------------------------------------------------------|

Intro solo
e|---------------------------------------------------------------------------|
B|---------------------------------------------------------------------------|
G|---------------------------------------------------------------------------|
D|---------------------------------------------------------------------------|
A|-5---7-/-9---7---5---7--/-9---5-------5---7-/-9---7-/-9--7--5---7----9---7-|
E|----------------------------------7----------------------------------------|

 Verse
e|---------------------------------------------------------------------------|
B|---------------------------------------------------------------------------|
G|-7--7--7--7--7--7--7-------------------------------------------------------|
D|-7--7--7--7--7--7--7-----9--9--9--9--9--9--9----5--5--5--5--5--5--5--------|
A|-5--5--5--5--5--5--5-----9--9--9--9--9--9--9----5--5--5--5--5--5--5--------|
E|-------------------------7--7--7--7--7--7--7----3--3--3--3--3--3--3--------|
   ...................     ...................    ...................
e|---------------------------------------------------------------------------|
B|---------------------------------------------------------------------------|
G|---------------------------------------------------------------------------|
D|-7--7--7--7--7--7--7--7------------play this twice-------------------------|
A|-7--7--7--7--7--7--7--7----------------------------------------------------|
E|-5--5--5--5--5--5--5--5----------------------------------------------------|
   ......................

 bridge???
e|----------------------------------------------------------------------------|
B|----------------------------------------------------------------------------|
G|-7-----7-------7--7---------------------------------------------------------|
D|-7-----7-------7--7-------9----9----9--9--------5--5--5--5--5--5--5---------|
A|-5-----5-------5--5-------9----9----9--9--------5--5--5--5--5--5--5---------|
E|--------------------------7----7----7--7--------3--3--3--3--3--3--3---------|
                                                  ...................
e|---------------------------------------------------------------------------|
B|---------------------------------------------------------------------------|
G|---------------------------------------------------------------------------|
D|-7--7--7--7--7--7--7--7----------------------------------------------------|
A|-7--7--7--7--7--7--7--7----------------------------------------------------|
E|-5--5--5--5--5--5--5--5----------------------------------------------------|
   ......................


e|---------------------------------------------------------------------------|
B|---------------------------------------------------------------------------|
G|-----------------------------7--7--7--7--7--7------------------------------|
D|-5----let-----------7--------7--7--7--7--7--7----------play twice----------|
A|-5----ring----------7--------5--5--5--5--5--5------------------------------|
E|-3------------------5------------------------------------------------------|
                               ................
e|---------------------------------------------------------------------------|
B|---------------------------------------------------------------------------|
G|---------------------------------------------------------------------------|
D|-5----7-----4-4-4-4-4----5-5-5-5-5----5--------7---------------------------|
A|-5----7-----4-4-4-4-4----5-5-5-5-5----5--------7---------------------------|
E|-3----5-----2-2-2-2-2----3-3-3-3-3----3--------5---------------------------|
              .........    .........

chorus
e|---------------------------------------------------------------------------|
B|---------------------------------------------------------------------------|
G|-7--7--7--7--7--7--7--7--7-------------------------------------------------|
D|-7--7--7--7--7--7--7--7--7-----9--9--9--9--9--9--9--9--9-------------------|
A|-5--5--5--5--5--5--5--5--5-----9--9--9--9--9--9--9--9--9-------------------|
E|-------------------------------7--7--7--7--7--7--7--7--7-------------------|

e|----------------------------------------------------------------------------|
B|----------------------------------------------------------------------------|
G|----------------------------------------7--7--7--7--7--7--7--7--7-----------|
D|-5--5--5--5--5------7--7--7--7--7--7----7--7--7--7--7--7--7--7--7-----------|repeat
A|-5--5--5--5--5------7--7--7--7--7--7----5--5--5--5--5--5--5--5--5-----------|
E|-3--3--3--3--3------5--5--5--5--5--5----------------------------------------|

Intro solo again
e|---------------------------------------------------------------------------|
B|---------------------------------------------------------------------------|
G|---------------------------------------------------------------------------|
D|---------------------------------------------------------------------------|
A|-5---7-/-9---7---5---7--/-9---5-------5---7-/-9---7-/-9--7--5---7----9---9-|
E|----------------------------------7----------------------------------------|

verse (two frets higher than the 1st)
e|---------------------------------------------------------------------------|
B|---------------------------------------------------------------------------|
G|-9--9--9--9--9--9--9-------------------------------------------------------|
D|-9--9--9--9--9--9--9--------11--11--11--11--11--11--11---------------------|
A|-7--7--7--7--7--7--7--------11--11--11--11--11--11--11---------------------|
E|-----------------------------9---9---9---9---9---9---9---------------------|

e|---------------------------------------------------------------------------|
B|---------------------------------------------------------------------------|
G|---------------------------------------------------------------------------|
D|-7--7--7--7--7--7--7---------9--9--9--9--9--9--9--9--9---------------------|
A|-7--7--7--7--7--7--7---------9--9--9--9--9--9--9--9--9---------------------|
E|-5--5--5--5--5--5--5---------7--7--7--7--7--7--7--7--7---------------------|

e|---------------------------------------------------------------------------|
B|---------------------------------------------------------------------------|
G|-9--9--9--9--9--9--9-------------------------------------------------------|
D|-9--9--9--9--9--9--9-------11--11--11--11--11--11--11----------------------|
A|-7--7--7--7--7--7--7-------11--11--11--11--11--11--11----------------------|
E|----------------------------9---9---9---9---9---9---9----------------------|

e|---------------------------------------------------------------------------|
B|---------------------------------------------------------------------------|
G|---------------------------------------------------------------------------|
D|-7-----7------9-----9-------------7--7--7--7--7-------9--9--9--9--9--9-----|
A|-7-----7------9-----9-------------7--7--7--7--7-------9--9--9--9--9--9-----|
E|-5-----5------7-----7----0-/12----5--5--5--5--5-------7--7--7--7--7--7-----|

e|---------------------------------------------------------------------------|
B|---------------------------------------------------------------------------|
G|--9---9-------------------------------------------9---9--------------------|
D|--9---9-------2--2--2--2--2--2-----7-------9------9---9-----2--2--2--2--2--|
A|--7---7-------2--2--2--2--2--2-----7-------9------7---7-----2--2--2--2--2--|
E|--------------0--0--0--0--0--0-----5-------7----------------0--0--0--0--0--|

e|---------------------------------------------------------------------------|
B|---------------------------------------------------------------------------|
G|---------------------------------------------------------------------------|
D|-7----9-----6--6--6--6--6---7--7--7--7--7----7-----9-----------------------|
A|-7----9-----6--6--6--6--6---7--7--7--7--7----7-----9-----------------------|
E|-5----7-----4--4--4--4--4---5--5--5--5--5----5-----7-----------------------|
              .............   .............

chorus
e|---------------------------------------------------------------------------|
B|---------------------------------------------------------------------------|
G|-9--9--9--9--9--9--9-------------------------------------------------------|
D|-9--9--9--9--9--9--9--------11--11--11--11--11--11--11---------------------|
A|-7--7--7--7--7--7--7--------11--11--11--11--11--11--11---------------------|
E|-----------------------------9---9---9---9---9---9---9---------------------|

e|---------------------------------------------------------------------------|
B|---------------------------------------------------------------------------|
G|---------------------------------------------------------------------------|
D|-7--7--7--7--7--7--7---------9--9--9--9--9--9--9--9--9---------------------|
A|-7--7--7--7--7--7--7---------9--9--9--9--9--9--9--9--9---------------------|
E|-5--5--5--5--5--5--5---------7--7--7--7--7--7--7--7--7---------------------|

e|---------------------------------------------------------------------------|
B|---------------------------------------------------------------------------|
G|-9--9--9--9--9--9--9--9--9-------------------------------------------------|
D|-9--9--9--9--9--9--9--9--9------------do twice-----------------------------|
A|-7--7--7--7--7--7--7--7--7-------------------------------------------------|
E|---------------------------------------------------------------------------|

e|---------------------------------------------------------------------------|
B|---------------------------------------------------------------------------|
G|-9--9--9--9----------------------------------------------------------------|
D|-9--9--9--9----------------11--11--11--11-------------7--7--7--7--7--7--7--|
A|-7--7--7--7------7~--6~----11--11--11--11-------------7--7--7--7--7--7--7--|
E|----------------------------9---9---9---9-----9~-7~---5--5--5--5--5--5--5--|

e|---------------------------------------------------------------------------|
B|---------------------------------------------------------------------------|
G|-------------------9--9--9--9----------------------------------------------|
D|-9--9--9--9--9-----9--9--9--9---------------11--11--11--11-----------------|
A|-9--9--9--9--9-----7--7--7--7----7~--6~-----11--11--11--11-----------------|
E|-7--7--7--7--7-------------------------------9---9---9---9-------9~--7~----|


e|---------------------------------------------------------------------------|
B|---------------------------------------------------------------------------|
G|---------------------------------------------------------------------------|
D|--5-----------------7--------------------2----------------------2----------|
A|--5-----------------7--------------------2------feed------------2----------|
E|--3-----------------5--------------------0------back------------0----------|


WOAH!!!!!! Oh!!!!! NO!!!!!!

Verse:
There's 52 ways to murder anyone
One or two are the same,
And they both work as well
I'm coming clean for Amy,
Julie doesn't scream as well
And the cops won't listen all night
And so maybe, maybe I'll be over
Just as soon as I fill them all in

And I can remember when I saw her last
We were running all around and having a blast
But the back seat of the drive-in
Is so lonely without you
I know when you're home
I was thinking about you,
There was was something I forgot to say
I was crying on a Saturday night
I was out cruising without you,
They were playing our song
Crying on Saturday night

As the moon becomes the night time
You go viciously, quietly away
I'm sitting in the bedroom,
Where we used to sit and smoke cigarettes
Now I'm watching, watching you die

I can remember when I saw her last
We were running all around and having a blast
But the back seat of the drive-in
Is so lonely without you
I know when you're home
I was thinking about you,
There was was something I forgot to say
I was crying on a Saturday night
I was out cruising without you,
They were playing our song
Crying on Saturday night


| /  slide up
| \  slide down
| h  hammer-on
| p  pull-off
| ~  vibrato
| +  harmonic
| x  Mute note
=============================================================================
Tap to rate this tab
# A B C D E F G H I J K L M N O P Q R S T U V W X Y Z