Song name
# A B C D E F G H I J K L M N O P Q R S T U V W X Y Z

Misfits - Halloween tab

-------------------------------------------------------------------------------
Halloween - The Misfits
12 Hits From Hell
-------------------------------------------------------------------------------
Tabbed by: axeslash
Email: holmzito@yahoo.com

Tuning: Both guitars standard

Guitar 1:
e|----------------------------------------------------|
B|----------------------------------------------------|
G|----------------------------------------------------|
D|----------------------------------------------------|
A|-2^----------2--2--2--2--2--2--2--2--2--2--2--2--2--|
E|-0-----------0--0--0--0--0--0--0--0--0--0--0--0--0--|
Guitar 2:
e|-----------------------------------------------|
B|-----------------------------------------------|
G|-----------------------------------------------|
D|-----------------------------------------------|
A|-2^----2-2-2-2-2-2-2-2-2-2-2-2-2-2-2-2-2-2-2-2-|
E|-0-----0-0-0-0-0-0-0-0-0-0-0-0-0-0-0-0-0-0-0-0-|

Guitar 1:
e|--------------------------------------------------------------------------------------------|
B|--------------------------------------------------------------------------------------------|
G|-----------------------------------------10----------------------12-------------------------|
D|-7---------------10----------------------10-10-10-10-10-10-10-10-12-12-12-12-12-12-12-12-12-|
A|-7-7-7-7-7-7-7-7-10-10-10-10-10-10-10-10--8--8--8--8--8--8--8--8-10-10-10-10-10-10-10-10-10-|
E|-5-5-5-5-5-5-5-5--8--8--8--8--8--8--8--8----------------------------------------------------| x2

e|-------------------------------------------------------------------------|
B|-------------------------------------------------------------------------|
G|-------------------------------------------------------------------------|
D|-------------------------------------------------------------------------|
A|-7-7-7-7-7-7-7-7-10-10-10-10-10-10-10-10-3-3-3-3-3-3-3-3-5-5-5-5-5-5-5-5-|
E|-5-5-5-5-5-5-5-5--8--8--8--8--8--8--8--8-1-1-1-1-1-1-1-1-3-3-3-3-3-3-3-3-| x2

Guitar 1:
e|-------------------------------------------------------|
B|-------------------------------------------------------|
G|-------------------------------------------------------|
D|-------------------------------------------------------|
A|-5-5-6--5-6------5-6--5-6------5-6--5-6------5-6--5-6--|
E|-0-0-0--0-0--0-0-0-0--0-0--0-0-0-0--0-0--0-0-0-0--0-0--|
Guitar 2:
e|---------------------------------|
B|---------------------------------|
G|---------------------------------|
D|---------------------------------|
A|-7-7-7-7-7-7-7-7-7-7-7-7-7-7-7-7-|
E|-5-5-5-5-5-5-5-5-5-5-5-5-5-5-5-5-| x2

Guitar 1:
e|--------------------------------------------------------------------------------------------|
B|--------------------------------------------------------------------------------------------|
G|-----------------------------------------10----------------------12-------------------------|
D|-7---------------10----------------------10-10-10-10-10-10-10-10-12-12-12-12-12-12-12-12-12-|
A|-7-7-7-7-7-7-7-7-10-10-10-10-10-10-10-10--8--8--8--8--8--8--8--8-10-10-10-10-10-10-10-10-10-|
E|-5-5-5-5-5-5-5-5--8--8--8--8--8--8--8--8----------------------------------------------------| x2

e|-------------------------------------------------------------------------|
B|-------------------------------------------------------------------------|
G|-------------------------------------------------------------------------|
D|-------------------------------------------------------------------------|
A|-7-7-7-7-7-7-7-7-10-10-10-10-10-10-10-10-3-3-3-3-3-3-3-3-5-5-5-5-5-5-5-5-|
E|-5-5-5-5-5-5-5-5--8--8--8--8--8--8--8--8-1-1-1-1-1-1-1-1-3-3-3-3-3-3-3-3-| x2

Guitar 1:
e|-------------------------------------------------------|
B|-------------------------------------------------------|
G|-------------------------------------------------------|
D|-------------------------------------------------------|
A|-5-5-6--5-6------5-6--5-6------5-6--5-6------5-6--5-6--|
E|-0-0-0--0-0--0-0-0-0--0-0--0-0-0-0--0-0--0-0-0-0--0-0--|
Guitar 2:
e|-------------------------------------------------|
B|-------------------------------------------------|
G|-------------------------------------------------|
D|-------------------------------------------------|
A|-7-7-7-7-7-7-7-7-7-7-7-7-7-7-7-7-7-7-7-7-7-7-7-7-|
E|-5-5-5-5-5-5-5-5-5-5-5-5-5-5-5-5-5-5-5-5-5-5-5-5-|

Guitar 1
e|---------------------------------------------------------|
B|---------------------------------------------------------|
G|-9--9--10--10--9-9-XX-10--10--9--9--10--10-9-9-9--10--10-|
D|-9--9--10--10--9-9-XX-10--10--9--9--10--10-9-9-9--10--10-|
A|-7--7---8---8--7-7-XX--8---8--7--7---8---8-7-7-7---8---8-|
E|---------------------------------------------------------|
Guitar 2
e|---------------------------------------------------------|
B|---------------------------------------------------------|
G|---------------------------------------------------------|
D|---------------------------------------------------------|
A|-7-7-7-7-7-7-7-7-7-7-7-7-7-7-7-7-7-7-7-7-7-7-7-7-7-7-7-7-|
E|-5-5-5-5-5-5-5-5-5-5-5-5-5-5-5-5-5-5-5-5-5-5-5-5-5-5-5-5-|

Guitar 1:
e|-------------------------------------------------------|
B|-------------------------------------------------------|
G|-------------------------------------------------------|
D|-------------------------------------------------------|
A|-5-5-6--5-6------5-6--5-6------5-6--5-6------5-6--5-6--|
E|-0-0-0--0-0--0-0-0-0--0-0--0-0-0-0--0-0--0-0-0-0--0-0--|
Guitar 2:
e|-------------------------------------------------|
B|-------------------------------------------------|
G|-------------------------------------------------|
D|-------------------------------------------------|
A|-7-7-7-7-7-7-7-7-7-7-7-7-7-7-7-7-7-7-7-7-7-7-7-7-|
E|-5-5-5-5-5-5-5-5-5-5-5-5-5-5-5-5-5-5-5-5-5-5-5-5-|

Guitar 1
e|---------------------------------------------------------|
B|---------------------------------------------------------|
G|-9--9--10--10--9-9-XX-10--10--9--9--10--10-9-9-9--10--10-|
D|-9--9--10--10--9-9-XX-10--10--9--9--10--10-9-9-9--10--10-|
A|-7--7---8---8--7-7-XX--8---8--7--7---8---8-7-7-7---8---8-|
E|---------------------------------------------------------|
Guitar 2
e|---------------------------------------------------------|
B|---------------------------------------------------------|
G|---------------------------------------------------------|
D|---------------------------------------------------------|
A|-7-7-7-7-7-7-7-7-7-7-7-7-7-7-7-7-7-7-7-7-7-7-7-7-7-7-7-7-|
E|-5-5-5-5-5-5-5-5-5-5-5-5-5-5-5-5-5-5-5-5-5-5-5-5-5-5-5-5-|

Guitars 1 & 2:
e|-----------------------------------------------------------------|
B|-----------------------------------------------------------------|
G|-----------------------------------------------------------------|
D|-7-7-7-7-7-7-7-7-7-7-7-7-7-7-7-7-5-5-5-5-5-5-5-5-5-5-5-5-5-5-5-5-|
A|-7-7-7-7-7-7-7-7-7-7-7-7-7-7-7-7-5-5-5-5-5-5-5-5-5-5-5-5-5-5-5-5-|
E|-5-5-5-5-5-5-5-5-5-5-5-5-5-5-5-5-3-3-3-3-3-3-3-3-3-3-3-3-3-3-3-3-| x4

Guitar 1:
e|--------------------------------------------------------------------------------------------|
B|--------------------------------------------------------------------------------------------|
G|-----------------------------------------10----------------------12-------------------------|
D|-7---------------10----------------------10-10-10-10-10-10-10-10-12-12-12-12-12-12-12-12-12-|
A|-7-7-7-7-7-7-7-7-10-10-10-10-10-10-10-10--8--8--8--8--8--8--8--8-10-10-10-10-10-10-10-10-10-|
E|-5-5-5-5-5-5-5-5--8--8--8--8--8--8--8--8----------------------------------------------------| x2

e|-------------------------------------------------------------------------|
B|-------------------------------------------------------------------------|
G|-------------------------------------------------------------------------|
D|-------------------------------------------------------------------------|
A|-7-7-7-7-7-7-7-7-10-10-10-10-10-10-10-10-3-3-3-3-3-3-3-3-5-5-5-5-5-5-5-5-|
E|-5-5-5-5-5-5-5-5--8--8--8--8--8--8--8--8-1-1-1-1-1-1-1-1-3-3-3-3-3-3-3-3-| x2

Guitars 1 & 2:
e|-----------------------------------------------------------------|
B|-----------------------------------------------------------------|
G|-----------------------------------------------------------------|
D|-7-7-7-7-7-7-7-7-7-7-7-7-7-7-7-7-5-5-5-5-5-5-5-5-5-5-5-5-5-5-5-5-|
A|-7-7-7-7-7-7-7-7-7-7-7-7-7-7-7-7-5-5-5-5-5-5-5-5-5-5-5-5-5-5-5-5-|
E|-5-5-5-5-5-5-5-5-5-5-5-5-5-5-5-5-3-3-3-3-3-3-3-3-3-3-3-3-3-3-3-3-| x4

Guitar 1:
e|-----------------------------------------------------------------|
B|-----------------------------------------------------------------|
G|-----------------------------------------------------------------|
D|-----------------------------------------------------------------|
A|-6-6-6-6-6-6-6-6-6-6-6-6-6-6-6-6-5-5-5-5-5-5-5-5-5-5-5-5-5-5-5-5-|
E|-0-0-0-0-0-0-0-0-0-0-0-0-0-0-0-0-0-0-0-0-0-0-0-0-0-0-0-0-0-0-0-0-|
Guitar 2:
e|-----------------------------------------------------------------|
B|-----------------------------------------------------------------|
G|-----------------------------------------------------------------|
D|-7-7-7-7-7-7-7-7-7-7-7-7-7-7-7-7-5-5-5-5-5-5-5-5-5-5-5-5-5-5-5-5-|
A|-7-7-7-7-7-7-7-7-7-7-7-7-7-7-7-7-5-5-5-5-5-5-5-5-5-5-5-5-5-5-5-5-|
E|-5-5-5-5-5-5-5-5-5-5-5-5-5-5-5-5-3-3-3-3-3-3-3-3-3-3-3-3-3-3-3-3-|

e|-----------------------------------------------------------------|
B|-----------------------------------------------------------------|
G|-----------------------------------------------------------------|
D|-----------------------------------------------------------------|
A|-6-6-6-6-6-6-6-6-6-6-6-6-6-6-6-6-5-------------------------------|
E|-0-0-0-0-0-0-0-0-0-0-0-0-0-0-0-0-0-------------------------------|

e|-----------------------------------------------------------------|
B|-----------------------------------------------------------------|
G|-----------------------------------------------------------------|
D|-7-7-7-7-7-7-7-7-7-7-7-7-7-7-7-7-5-------------------------------|
A|-7-7-7-7-7-7-7-7-7-7-7-7-7-7-7-7-5-------------------------------|
E|-5-5-5-5-5-5-5-5-5-5-5-5-5-5-5-5-3-------------------------------|


| /  slide up
| \  slide down
| h  hammer-on
| p  pull-off
| ~  vibrato
| +  harmonic
| x  Mute note
===============================================================================
Tap to rate this tab
 
# A B C D E F G H I J K L M N O P Q R S T U V W X Y Z