Song name
# A B C D E F G H I J K L M N O P Q R S T U V W X Y Z

Misfits - Die Monster Die tab

Hello,
This should be pretty accurate and i hope you find it useful.
NOTE:Played in Standard(E)Tuning,but works in Half-step tuning as well:)

Intro/ Verse
E---------------------------------------------------------|
B---------------------------------------------------------|
G---------------------------7--7-7------------------------|
D-7--7-7--11--11-11-4--4-4--7--7-7----7--7-7--/--22222222-|
A-7--7-7--11--11-11-4--4-4--5--5-5----7--7-7--/--22222222-|
E-5--5-5--9 --9 -9 -2--2-2------------5--5-5--/--00000000-|
    				            .........

Chorus
E-------------------|
B-------------------|
G-------------77777-|
D-77777-99999-77777-|
A-77777-99999-55555-|
E-55555-77777-------|

Post Chorus
E--------------------|
B--------------------|
G--------------------|
D-7-77777-2222222222-|
A-7-77777-2222222222-|
E-5-55555-0000000000-|
	  .........

Bridge
E----------------|
B----------------|
G------------7-7-|
D-7-77777777-7-7-|
A-7-77777777-5-5-|
E-5-55555555-----|
    ........
                                     Order:
Intro/ Verse 3x
Chorus       3x
Post Chorus  1x
Intro/ Verse 2x
Chorus       3x
Post Chorus  1x
Bridge       3x
Post Chorus  1x  with a pause
Intro/ Verse 2x
Chorus       3x
Post Chorus  1x
Chorus       3x
Post Chorus  1x
Tap to rate this tab
# A B C D E F G H I J K L M N O P Q R S T U V W X Y Z