Song name
# A B C D E F G H I J K L M N O P Q R S T U V W X Y Z

Misfits - Scream drum

Artist: Misfits
Song: Scream!
Album: Famous Monsters
Drummer: Dr. Chud

t- small tom
m- medium tom
f- floor tom
F- flam 
0- open hi-hat

INTRO
                                 
|-----------------------------repeat 2x------------------------------|
C:x---------------|----------------|x---------------|----------------|
t:----------------|----------------|----------------|--------F-------|
m:----------------|----------------|----------------|------------o---|
f:----------------|----------------|----------------|--------------F-|
h:----0-------0---|----0-------0---|----0-------0---|----0-------0---|
S:----------------|----------------|----------------|----------------|
B:o---------------|----------------|o---------------|----------------|
  1 + 2 + 3 + 4 +  1 + 2 + 3 + 4 +  1 + 2 + 3 + 4 +  1 + 2 + 3 + 4 +

C:x-------x-------|x---------------|x-------x-------|x---------------|
t:----------------|--------F-------|----------------|--------F-------|
m:----------------|------------o---|----------------|------------o---|
f:----------------|--------------F-|----------------|--------------F-|
h:----0-------0---|----0-------0---|----0-------0---|----0-------0---|
S:----------------|----------------|----------------|----------------|
B:o-------o-------|o---------------|o-------o-------|o---------------|
  1 + 2 + 3 + 4 +  1 + 2 + 3 + 4 +  1 + 2 + 3 + 4 +  1 + 2 + 3 + 4 +

C:x-------x-------|x---------------|x-------x-------|x---------------|
t:----------------|--------F-------|----------------|----------------|
m:----------------|------------o---|----------------|----------------|
f:----------------|--------------F-|----------------|----------------|
h:----0-------0---|----0-------0---|----0-------0---|----------------|
S:----------------|----------------|----------------|--------------F-|
B:o-------o-------|o---------------|o-------o-------|o------------o--|

C:x---------------|----------------|----------------|----------------|
h:--x-x-x-x-x-x-x-|x-x-x-x-x-x-x-x-|x-x-x-x-x-x-x-x-|x-x-x-x-x-x-x-x-|
S:--o---o---o---o-|--o---o---o---o-|--o---o---o---o-|--o---o---o---o-|
B:o---oo--o---oo--|o---oo--o---oo--|o---oo--o��-oo--|o---oo--o---oo--|

C:----------------|----------------|----------------|----------------|
h:x-x-x-x-x-x-x-x-|x-x-x-x-x-x-x-x-|x-x-x-x-x-x-x-x-|x-x-x-x-x-x-x-x-|
S:--o---o---o---o-|--o---o---o---o-|--o---o---o---o-|--o---o---o---o-|
B:o---oo--o---oo--|o---oo--o---oo--|o---oo--o��-oo--|o---oo--o---oo--|

C:x---------------|----------------|----------------|----------------|
r:--x-x-x-x-x-x-x-|x-x-x-x-x-x-x-x-|x-x-x-x-x-x-x-x-|x-x-x-x-x-x-x-x-|
S:--o---o---o---o-|--o---o---o---o-|--o---o---o---o-|--o�--o---o---o-|
B:o---o---o---o---|o---o---o---o---|o---o---o---o---|o---o---o---o---|

C:x---------------|----------------|----------------|----------------|
h:--x-x-x-x-x-x-x-|x-x-x-x-x-x-x-x-|x-x-x-x-x-x-x-x-|x-x-x-x-x-x-x-x-|
S:--o---o---o---o-|--o---o---o---o-|--o---o---o---o-|--o---o---o---o-|
B:o---oo--o---oo--|o---oo--o---oo--|o---oo--o��-oo--|o---oo--o---oo--|

C:----------------|----------------|----------------|----------------|
h:x-x-x-x-x-x-x-x-|x-x-x-x-x-x-x-x-|x-x-x-x-x-x-x-x-|x-x-x-x-x-x-x-x-|
S:--o---o---o---o-|--o---o---o---o-|--o---o---o---o-|--o---o---o---o-|
B:o---oo--o---oo--|o---oo--o---oo--|o---oo--o��-oo--|o---oo--o---oo--|

C:x---------------|----------------|----------------|----------------|
r:--x-x-x-x-x-x-x-|x-x-x-x-x-x-x-x-|x-x-x-x-x-x-x-x-|x-x-x-x-x-x-x-x-|
S:--o---o---o---o-|--o---o---o---o-|--o---o---o---o-|--o�--o---o---o-|
B:o---o---o---o---|o---o---o---o---|o---o---o---o---|o---o---o---o---|

C:----------------|----------------|----------------|----------------|
r:x-x-x-x-x-x-x-x-|x-x-x-x-x-x-x-x-|x-x-x-x-x-x-x-x-|x-x-x-x-x-x-x-x-|
S:--o---o---o---o-|--o---o---o---o-|--o---o---o---o-|--o�--o---o---o-|
B:o---o---o---o---|o---o---o---o---|o---o---o---o---|o---o---o---o---|

C:----------------|----------------|
f:o�o-o-o-o-o-o-o-|--o----o----o---|
h:----------------|----------------|
S:----o--------o--|--o----o----o---|
B:o--------o------|--o----o----o---|

C:X---------------|X---------------|X-------X-------|X---------------|
H:--0-0-0-0-0-0-0-|--0-0-0-0-0-0-0-|--0-0-0---0-0-0-|--0-0-0-0-0-0-0-|
S:--o---o---o---o-|--o---o---o---o-|--o---o---o---o-|--o---o---o---o-|
B:o---o---o---o---|o---o---o---o---|o---o---o---o---|o---o---o---o---|

|-------------repeat 2x------------| 
C:X-------X-------|X------X--------|
t:---o-o-----o-o--|---o-o---o----o-|
m:---o-o-----o-o--|---o-o---o----o-|
f:----------------|-----------o----|
S:----------------|----------------|
B:o-------o-------|o------o--------|

c:x---------------|----------------|----------------|----------------|
r:--x-x-x-x-x-x-x-|x-x-x-x-x-x-x-x-|x-x-x-x-x-x-x-x-|x-x-x-x-x-x-x-x-|
S:--o---o---o---o-|--o---o---o---o-|--o---o---o---o-|--o�--o---o---o-|
B:o---o---o---o---|o---o---o---o---|o---o---o---o---|o---o---o---o---|

c:----------------|----------------|----------------|----------------|
r:x-x-x-x-x-x-x-x-|x-x-x-x-x-x-x-x-|x-x-x-x-x-x-x-x-|x-x-x-x-x-x-x-x-|
S:--o---o---o---o-|--o---o---o---o-|--o---o---o---o-|--o�--o---o---o-|
B:o---o---o---o---|o---o---o---o---|o---o---o---o---|o---o---o---o---|

 ENDING
|-------------repeat 2x------------| 
C:X-------X-------|X------X--------|-X-|
t:---o-o-----o-o--|---o-o---o----o-|---|
m:---o-o-----o-o--|---o-o---o----o-|---|
f:----------------|-----------o----|---|
S:----------------|----------------|---|
B:o-------o-------|o------o--------|-o-|
Tap to rate this tab
# A B C D E F G H I J K L M N O P Q R S T U V W X Y Z