Song name
# A B C D E F G H I J K L M N O P Q R S T U V W X Y Z

Misfits - Horror Business tab

MISFITS-HORROR BUSINESS

tabbed by RYANIRVANA
tuning:standard

Intro (1x)
e-----|
B-----|
G-----|
D-----|
A-8-7-|
E-6-5-|

Verse (6x)
e---------------------------------|
B---------------------------------|
G---------------------------------|
D---------------------------------|
A-5-5---5-5-5---5-5-5---5-8-8-7-7-|
E-3-3-6-3-3-3-6-3-3-3-6-3-6-6-5-5-|

  Too much horror business.....
  Psycho       seventy eight...

Bridge (1x)
e-------------------------------------------------------------------------|
B-------------------------------------------------------------------------|
G-------------------------------------------------------------------------|
D-------------------------------------------------------------------------|
A-8-8-8-8-8-8-8-8-8-8-8-8-8-8-8-8-7-7-7-7-7-7-7-7-10-10-10-10-10-10-10-10-|
E-6-6-6-6-6-6-6-6-6-6-6-6-6-6-6-6-5-5-5-5-5-5-5-5--8--8--8--8--8--8--8--8-|

  You...You    dont   go   in my  bath             room     with      me     

(intro 1x)
(verse 6x)
(bridge 1x)

Chorus (4x)
e----------------------------------------------------------------------
B----------------------------------------------------------------------
G------10-10-10-10-10-10-10-10-----------------------------------------
D------10-10-10-10-10-10-10-10-10-10-10-10-10-10-10-10-8-8-8-8-8-8-8-8-
A-------8--8--8--8--8--8--8--8-10-10-10-10-10-10-10-10-8-8-8-8-8-8-8-8-
E-------------------------------8--8--8--8--8--8--8--8-6-6-6-6-6-6-6-6-

        you                               ill put a    knife  right in   

e-------------------------|
B-------------------------|
G-------------------------|
D-10-10-10-10-10-10-10-10-|
A-10-10-10-10-10-10-10-10-|
E--8--8--8--8--8--8--8--8-|

  you, im warning 

(intro 1x)
(verse 6x)
(bridge 1x)
(intro 1x)
(verse 6x)
(bridge 1x)
(chorus 6x)

Solo
e-13-13-13-13-13-13-13-13-8-8-8-8-8-8-8-8-6-6-6-6-6-6-6-6-8-8-8-8-8-8-8-8-|
B-13-13-13-13-13-13-13-13-8-8-8-8-8-8-8-8-6-6-6-6-6-6-6-6-8-8-8-8-8-8-8-8-|
G-------------------------------------------------------------------------|
D-------------------------------------------------------------------------|
A-------------------------------------------------------------------------|
E-------------------------------------------------------------------------|

-Lyrics-

Too much horror business 
Driving late at night 
Psycho '78 
My bathroom is new 

You...you don't go in the bathroom with me 

Psycho '78 
12 o'clock, don't be late 
All this horror business 
My mirrors are black 

You don't go in the bathroom with me 

With you 
I'll put a knife right in you 
I'm warning you 
I'll put a knife right in you 
I'm warning you 
I'll put a knife right in you 

Too much horror business 
Drivin' late at night 
Psycho '78 
My bathroom is new for you 

You, you don't go in the bathroom with me 

Psycho '78 
I'm talking about 
12 o'clock, don't be late 
I say, all this horror business 
My mirrors are black for you 

You, you don't go in the bathroom with me 

With you 
I'll put a knife right in you 
I'm warning you 
I'll put a knife right in you 
I'm warning you 
I'll put a knife right in you 
I'm warning you 
I'll put a knife right in you 
I'm warning you 
You, nobody can do 
What I can do, no 
Tap to rate this tab
# A B C D E F G H I J K L M N O P Q R S T U V W X Y Z