Song name
# A B C D E F G H I J K L M N O P Q R S T U V W X Y Z

Misfits - Dig Up Her Bones tab

       DIG UP HER BONES
                           As recorded by The Misfits


 Intro
  Moderate Rock Q=220
               B5           G5
 4/4
  Gtrs I, II
|-----------||----------------|-------------------|
|-----------||----------------|-------------------|
|-----------||-4--4-4-4-4-4---|-------------------|
|-------x\--||-4--4-4-4-4-4-5-|-(5)-5-5-5-5-5-5-5-|
|-------x\--||-2--2-2-2-2-2-5-|-(5)-5-5-5-5-5-5-5-|
|-------x\--||--------------3-|-(3)-3-3-3-3-3-3-3-|


  A5           B5
|----------------|--------------------|
|----------------|--------------------|
|--------------4-|-(4)---4---4---4----|
|-7--7-7-7-7-7-4-|-(4)-4-4-4-4-4-4-4--|
|-7--7-7-7-7-7-2-|-(2)-0-2-0-2-0-2-0--|
|-5--5-5-5-5-5---|--------------------|


  B5           G5                      A5           B5
|----------------|-------------------|----------------|-------------------|
|----------------|-------------------|----------------|-------------------|
|-4--4-4-4-4-4---|-------------------|--------------4-|-(4)---4---4---4---|
|-4--4-4-4-4-4-5-|-(5)-5-5-5-5-5-5-5-|-7--7-7-7-7-7-4-|-(4)-4-4-4-4-4-4-4-|
|-2--2-2-2-2-2-5-|-(5)-5-5-5-5-5-5-5-|-7--7-7-7-7-7-2-|-(2)-0-2-0-2-0-2-0-|
|--------------3-|-(3)-3-3-3-3-3-3-3-|-5--5-5-5-5-5---|-------------------|


  B5           G5                      D5           A5
|----------------|-------------------|----------------|-------------------|
|----------------|-------------------|----------------|-------------------|
|-4--4-4-4-4-4---|-------------------|-7--7-7-7-7-7---|-------------------|
|-4--4-4-4-4-4-5-|-(5)-5-5-5-5-5-5-5-|-7--7-7-7-7-7-7-|-(7)-7-7-7-7-7-7-7-|
|-2--2-2-2-2-2-5-|-(5)-5-5-5-5-5-5-5-|-5--5-5-5-5-5-7-|-(7)-7-7-7-7-7-7-7-|
|--------------3-|-(3)-3-3-3-3-3-3-3-|--------------5-|-(5)-5-5-5-5-5-5-5-|


  B5           G5                      A5
|----------------|-------------------|----------|--------------|
|----------------|-------------------|----------|--------------|
|-4--4-4-4-4-4---|-------------------|----------|--------------|
|-4--4-4-4-4-4-5-|-(5)-5-5-5-5-5-5-5-|-7--------|-(7)----x-7---|
|-2--2-2-2-2-2-5-|-(5)-5-5-5-5-5-5-5-|-7--------|-(7)----x-7---|
|--------------3-|-(3)-3-3-3-3-3-3-3-|-5--------|-(5)----x-5---|


   Verse 1
    B5           G5                      A5           B5
       PM------|         PM----------|      PM------|
                                                                              4x
||-----------------|-------------------|----------------|---------------------||
||o----------------|-------------------|----------------|--------------------o||
||--4--------------|-------------------|--------------4-|-(4)---4---4---4-----||
||--4--4-4-4-4-4-5-|-(5)---------------|-7------------4-|-(4)-4-4-4-4-4-4-4---||
||o-2--2-2-2-2-2-5-|-(5)-5-5-5-5-5-5-5-|-7--7-7-7-7-7-2-|-(2)-0-2-0-2-0-2-0--o||
||---------------3-|-(3)-3-3-3-3-3-3-3-|-5--5-5-5-5-5---|---------------------||


   Bridge
    G5           A5                      B5
||-----------------|-------------------|----------------|---------------------||
||o----------------|-------------------|----------------|--------------------o||
||-----------------|-------------------|----------------|---------------------||
||--5--5-5-5-5-5-7-|-(7)-7-7-7-7-7-7-7-|-9--9-9-9-9-9-9-|-(9)-9-9-9-9-9-9-9---||
||o-5--5-5-5-5-5-7-|-(7)-7-7-7-7-7-7-7-|-9--9-9-9-9-9-9-|-(9)-9-9-9-9-9-9-9--o||
||--3--3-3-3-3-3-5-|-(5)-5-5-5-5-5-5-5-|-7--7-7-7-7-7-7-|-(7)-7-7-7-7-7-7-7---||


   Verse 2
    B5           G5                      A5           B5
       PM------|         PM----------|      PM------|
                                                                              4x
||-----------------|-------------------|----------------|---------------------||
||o----------------|-------------------|----------------|--------------------o||
||--4--------------|-------------------|--------------4-|-(4)---4---4---4-----||
||--4--4-4-4-4-4-5-|-(5)---------------|-7------------4-|-(4)-4-4-4-4-4-4-4---||
||o-2--2-2-2-2-2-5-|-(5)-5-5-5-5-5-5-5-|-7--7-7-7-7-7-2-|-(2)-0-2-0-2-0-2-0--o||
||---------------3-|-(3)-3-3-3-3-3-3-3-|-5--5-5-5-5-5---|---------------------||


   Bridge
    G5           A5                      B5
||-----------------|-------------------|----------------|---------------------||
||o----------------|-------------------|----------------|--------------------o||
||-----------------|-------------------|----------------|---------------------||
||--5--5-5-5-5-5-7-|-(7)-7-7-7-7-7-7-7-|-9--9-9-9-9-9-9-|-(9)-9-9-9-9-9-9-9---||
||o-5--5-5-5-5-5-7-|-(7)-7-7-7-7-7-7-7-|-9--9-9-9-9-9-9-|-(9)-9-9-9-9-9-9-9--o||
||--3--3-3-3-3-3-5-|-(5)-5-5-5-5-5-5-5-|-7--7-7-7-7-7-7-|-(7)-7-7-7-7-7-7-7---||


   Chorus
    B5           G5                      D5           A5
                                                                              4x
||-----------------|-------------------|----------------|---------------------||
||o----------------|-------------------|----------------|--------------------o||
||--4--4-4-4-4-4---|-------------------|-7--7-7-7-7-7---|---------------------||
||--4--4-4-4-4-4-5-|-(5)-5-5-5-5-5-5-5-|-7--7-7-7-7-7-7-|-(7)-7-7-7-7-7-7-7---||
||o-2--2-2-2-2-2-5-|-(5)-5-5-5-5-5-5-5-|-5--5-5-5-5-5-7-|-(7)-7-7-7-7-7-7-7--o||
||---------------3-|-(3)-3-3-3-3-3-3-3-|--------------5-|-(5)-5-5-5-5-5-5-5---||


   Pre-Verse
    B5           G5                      A5           B5
       PM------|         PM----------|      PM------|
||-----------------|-------------------|----------------|---------------------||
||o----------------|-------------------|----------------|--------------------o||
||--4--------------|-------------------|--------------4-|-(4)---4---4---4-----||
||--4--4-4-4-4-4-5-|-(5)---------------|-7------------4-|-(4)-4-4-4-4-4-4-4---||
||o-2--2-2-2-2-2-5-|-(5)-5-5-5-5-5-5-5-|-7--7-7-7-7-7-2-|-(2)-0-2-0-2-0-2-0--o||
||---------------3-|-(3)-3-3-3-3-3-3-3-|-5--5-5-5-5-5---|---------------------||


   Verse 3
    B5           G5                      A5           B5
       PM------|         PM----------|      PM------|
                                                                              4x
||-----------------|-------------------|----------------|---------------------||
||o----------------|-------------------|----------------|--------------------o||
||--4--------------|-------------------|--------------4-|-(4)---4---4---4-----||
||--4--4-4-4-4-4-5-|-(5)---------------|-7------------4-|-(4)-4-4-4-4-4-4-4---||
||o-2--2-2-2-2-2-5-|-(5)-5-5-5-5-5-5-5-|-7--7-7-7-7-7-2-|-(2)-0-2-0-2-0-2-0--o||
||---------------3-|-(3)-3-3-3-3-3-3-3-|-5--5-5-5-5-5---|---------------------||


   Bridge
    G5           A5                      B5
||-----------------|-------------------|----------------|---------------------||
||o----------------|-------------------|----------------|--------------------o||
||-----------------|-------------------|----------------|---------------------||
||--5--5-5-5-5-5-7-|-(7)-7-7-7-7-7-7-7-|-9--9-9-9-9-9-9-|-(9)-9-9-9-9-9-9-9---||
||o-5--5-5-5-5-5-7-|-(7)-7-7-7-7-7-7-7-|-9--9-9-9-9-9-9-|-(9)-9-9-9-9-9-9-9--o||
||--3--3-3-3-3-3-5-|-(5)-5-5-5-5-5-5-5-|-7--7-7-7-7-7-7-|-(7)-7-7-7-7-7-7-7---||


   Chorus 2
    B5           G5                      D5           A5
                                                                              8x
||-----------------|-------------------|----------------|---------------------||
||o----------------|-------------------|----------------|--------------------o||
||--4--4-4-4-4-4---|-------------------|-7--7-7-7-7-7---|---------------------||
||--4--4-4-4-4-4-5-|-(5)-5-5-5-5-5-5-5-|-7--7-7-7-7-7-7-|-(7)-7-7-7-7-7-7-7---||
||o-2--2-2-2-2-2-5-|-(5)-5-5-5-5-5-5-5-|-5--5-5-5-5-5-7-|-(7)-7-7-7-7-7-7-7--o||
||---------------3-|-(3)-3-3-3-3-3-3-3-|--------------5-|-(5)-5-5-5-5-5-5-5---||


 Outro
  B5           G5                      D5           A5
|----------------|-------------------|----------------|-------------------|
|----------------|-------------------|----------------|-------------------|
|-4--4-4-4-4-4---|-------------------|-7--7-7-7-7-7---|-------------------|
|-4--4-4-4-4-4-5-|-(5)-5-5-5-5-5-5-5-|-7--7-7-7-7-7-7-|-(7)-7-7-7-7-7-7-7-|
|-2--2-2-2-2-2-5-|-(5)-5-5-5-5-5-5-5-|-5--5-5-5-5-5-7-|-(7)-7-7-7-7-7-7-7-|
|--------------3-|-(3)-3-3-3-3-3-3-3-|--------------5-|-(5)-5-5-5-5-5-5-5-|


  B5
|----------|------------|------------|--------*|
|----------|------------|------------|--------*|
|-4--------|-(4)--------|-(4)--------|-(4)----*|
|-4--------|-(4)--------|-(4)--------|-(4)----*|
|-2--------|-(2)--------|-(2)--------|-(2)----*|
|----------|------------|------------|--------*|



***************************************************************************************
* Generated using Power Tab Editor by Brad Larsen - http://powertab.guitarnetwork.org *
***************************************************************************************
Tap to rate this tab
# A B C D E F G H I J K L M N O P Q R S T U V W X Y Z