Misfits - Mephisto Waltz tab

I saw this tab on here but its not quite right
here is my rendition of the song
e|--------------------------------|
B|--------------------------------|
G|---9-9-9-9----------------------|
D|---9-9-9-9----8-8---9-9---------|X8
A|---7-7-7-7----8-8---9-9---------|
E|--------------6-6---7-7---------|

e|-----------------------------------------------------------------|
B|-----------------------------------------------------------------|
G|--77777-----------77777-----------77777--------------------------|
D|--77777---77777---77777---77777---77777---777777----99999--------|
A|--55555---77777---55555---77777---55555---777777----99999--------|
E|----------55555-----------55555-----------555555----77777--------|

PLAY BOTH PARTS TWICE ON THE THIRD TIME
e|--------------------------------|
B|--------------------------------|
G|---9-9-9-9----------------------|
D|---9-9-9-9----8-8---9-9---------|X4
A|---7-7-7-7----8-8---9-9---------|
E|--------------6-6---7-7---------|

e|-----------------------------------------------------------------|
B|-----------------------------------------------------------------|
G|--77777-----------77777-----------77777--------------------------|
D|--77777---77777---77777---77777---77777---777777----99999--------|X2
A|--55555---77777---55555---77777---55555---777777----99999--------|
E|----------55555-----------55555-----------555555----77777--------|

Solo:
e|--------|
B|---12---|
G|---15^--|
D|--------|
A|--------|
E|--------|

e|-----------------------------------------------------------------|
B|-----------------------------------------------------------------|
G|--77777-----------77777-----------77777--------------------------|
D|--77777---77777---77777---77777---77777---777777----99999--------|X2
A|--55555---77777---55555---77777---55555---777777----99999--------|
E|----------55555-----------55555-----------555555----77777--------|

THEN THE SOLO PART AGAIN
EASY AND COOL SONG TO PLAY
Tap to rate this tab
 
# A B C D E F G H I J K L M N O P Q R S T U V W X Y Z