Song name
# A B C D E F G H I J K L M N O P Q R S T U V W X Y Z

Misfits - All Hell Breaks Loose tab

  tunning: standard guitar

  tabbed by: larry munster

  e-mail: hill.david28@yahoo.com


 riff 1 x5

E------------------------------|
B------------------------------|
G------------------------------|
D-77777777-10101010-5-5-3-3----|
A-55555555-8-8-8-8--3-3-1-1----|
E------------------------------|

 riff 2

E---------------|
B---------------|
G---------------|
D-10-10----5----|
A-8--8-----3----|
E---------------|

 riff 1 x4

 riff 2

 riff 3 x2

E------------------------------------|
B------------------------------------|
G------------------------------------|
D------------7777------------5555----|
A-2-----5555-5555-2-----5555-3333----|
E-0(x8)-3333------0(x8)-3333---------|

 riff 1 x4

 riff 2

 riff 3 x4

 riff 4

E-----------------|
B-----------------|
G-----------------|
D-5-----7---------|
A-3--5--5----2----|
E----3-------0----|
Tap to rate this tab
 
# A B C D E F G H I J K L M N O P Q R S T U V W X Y Z