Song name
# A B C D E F G H I J K L M N O P Q R S T U V W X Y Z

Misfits - Scarecrow Man tab

-------------------------------------------------------------------------------
			     Scarecrow Man - Misfits
-------------------------------------------------------------------------------
Tabbed by:S.A.H.G.


e|----------------------------------------------------------------------|
B|----------------------------------------------------------------------|
G|----------------------------------------------------------------------| x2
D|----------------------------------------------------------------------|
A|------------------------------------------2---------------------------|
E|---0---6p0-6p0--0---6p0-6p0--0---6p0-6p0--0---------------------------|

e|----------------------------------------------------------------------|
B|----------------------------------------------------------------------|
G|----------------------------------------------------------------------| x2
D|----------------------------------------------------------------------|
A|---------------------------------------------2------------------------|
E|---0---6p0-6p0-0-0---6p0-6p0-0-0---6p0-6p0-0-0------------------------|

e|----------------------------------------------------------------------|
B|----------------------------------------------------------------------|
G|----------------------------------------------------------------------| x6
D|----------------------------------------------------------------------|
A|-------------------------------6-6-6----------------------------------|
E|---0--3-0--3-0-3-0--3-0-3-0-3--6-6-6p0--------------------------------|

e|----------------------------------------------------------------------|
B|----------------------------------------------------------------------|
G|----------------------------------------------------------------------| x1
D|---7---5---4------7---5---4-------------------------------------------|
A|---5---3---2------5---3---2-3^----------------------------------------|
E|----------------------------------------------------------------------|

e|----------------------------------------------------------------------|
B|----------------------------------------------------------------------|
G|----------------------------------------------------------------------| x2
D|----------------------------------------------------------------------|
A|--------------------------------9-7-5-4-------------------------------|
E|---0--3-0--3-0-3-0--3-0-3-0-3--/7-5-3-2-------------------------------|

e|----------------------------------------------------------------------|
B|----------------------------------------------------------------------|
G|----------------------------------------------------------------------| x4
D|----------------------------------------------------------------------|
A|-------------------------------6-6-6----------------------------------|
E|---0--3-0--3-0-3-0--3-0-3-0-3--6-6-6p0--------------------------------|

e|----------------------------------------------------------------------|
B|----------------------------------------------------------------------|
G|----------------------------------------------------------------------| x1
D|---7---5---4------7---5---4-------------------------------------------|
A|---5---3---2------5---3---2-3^----------------------------------------|
E|----------------------------------------------------------------------|

e|----------------------------------------------------------------------|
B|----------------------------------------------------------------------|
G|----------------------------------------------------------------------| x4
D|----------------------------------------------------------------------|
A|--------------------------------9-7-5-4-------------------------------|
E|---0--3-0--3-0-3-0--3-0-3-0-3--/7-5-3-2-------------------------------|

e|----------------------------------------------------------------------|
B|----------------------------------------------------------------------|
G|----------------------------------------------------------------------| x1
D|----------------------------------------------------------------------|
A|---4---5--------------------------------------------------------------|
E|---2---3--------------------------------------------------------------|

solo:
e|----------------------------------------------------------------------|
B|-------------1010-1212-1010-------------------------------------------|
G|-99-1111-1212--------------1212-1111-1212-1111-1212-11/9--------------|
D|----------------------------------------------------------------------|
A|----------------------------------------------------------------------|
E|----------------------------------------------------------------------|

e|----------------------------------------------------------------------|
B|---10---8---7---8----10----12----15----13-----12----------------------|
G|---12^--10^-9^--10^--12^---14^---17^---15^----14^-------17+^----------|
D|----------------------------------------------------------------------|
A|----------------------------------------------------------------------|
E|----------------------------------------------------------------------|

e|----------------------------------------------------------------------|
B|----------------------------------------------------------------------|
G|----------------------------------------------------------------------| x2
D|----------------------------------------------------------------------|
A|--------------------------------9-7-5-4-------------------------------|
E|---0--3-0--3-0-3-0--3-0-3-0-3--/7-5-3-2-------------------------------|

e|----------------------------------------------------------------------|
B|----------------------------------------------------------------------|
G|----------------------------------------------------------------------| x4
D|----------------------------------------------------------------------|
A|-------------------------------6-6-6----------------------------------|
E|---0--3-0--3-0-3-0--3-0-3-0-3--6-6-6p0--------------------------------|

e|----------------------------------------------------------------------|
B|----------(8--10-12-)-------------------------------------------------|
G|----------(10^12^14^)-------------------------------------------------|
D|---7---5---4------7---5---4-------------------------------------------|
A|---5---3---2------5---3---2-3^----------------------------------------|
E|----------------------------------------------------------------------|

e|----------------------------------------------------------------------|
B|----------------------------------------------------------------------|
G|----------------------------------------------------------------------| x4
D|----------------------------------------------------------------------|
A|--------------------------------9-7-5-4-------------------------------|
E|---0--3-0--3-0-3-0--3-0-3-0-3--/7-5-3-2-------------------------------|

e|----------------------------------------------------------------------|
B|----------------------------------------------------------------------|
G|----------------------------------------------------------------------| x3
D|----------------------------------------------------------------------|
A|---------------------------------------------2------------------------|
E|---0---6p0-6p0-0-0---6p0-6p0-0-0---6p0-6p0-0-0------------------------|

e|----------------------------------------------------------------------|
B|----------------------------------------------------------------------|
G|----------------------------------------------------------------------| x1
D|----------------------------------------------------------------------|
A|----------------------------------------------9-7-5-4-2---------------|
E|---0---6p0-6p0-0-0---6p0-6p0-0-0---6p0-6p0-0-/7-5-3-2-0---------------|



************************************

| /   slide up
| \   slide down
| h   hammer-on
| p   pull-off
| ~   vibrato
| +   harmonic
| x   Mute note
| ^   Bend
| pb  Pre-bend
| br  Bend release
| pbr Pre-bend release
| brb Bend release bend

************************************
Tap to rate this tab
 
# A B C D E F G H I J K L M N O P Q R S T U V W X Y Z