Song name
# A B C D E F G H I J K L M N O P Q R S T U V W X Y Z

Misfits - Turned Into A Martian tab

Verse : x6 (strum As many times you need on the power chords)
| ------------------------- |
| ------------------------- |
| --------7--5--7---------- |
| --5--7--7--5--7--7------- |
| --5--7--5--3--5--7------- |
| --3--5-----------5------- |

chorus : x3
| ------------------- |
| ------------------- |
| --------7--7------- |
| --5--7--7--7--7---- |
| --5--7--5--5--7---- |
| --3--5--------5---- |

Verse 2 : x6
| ------------------- |
| ------------------- |
| --------5--7------- |
| --5--7--5--7--7---- |
| --5--7--3--5--7---- |
| --3--5--------5---- |

chorus : x3
| ------------------- |
| ------------------- |
| --------7--7------- |
| --5--7--7--7--7---- |
| --5--7--5--5--7---- |
| --3--5--------5---- |

after chorus : x4
| ---------------- |
| ---------------- |
| --------5------- |
| --5--7--5--3---- |
| --5--7--3--3---- |
| --3--5-----1---- |

With solo : x7
| ------------------- |
| ------------------- |
| --------7--7------- |
| --5--7--7--7--7---- |
| --5--7--5--5--7---- |
| --3--5--------5---- |

End with :
| ------------- |
| ------------- |
| --------7---- |
| --5--7--7---- |
| --5--7--5---- |
| --3--5------- |
Tap to rate this tab
# A B C D E F G H I J K L M N O P Q R S T U V W X Y Z