Song name
# A B C D E F G H I J K L M N O P Q R S T U V W X Y Z

Misfits - Mommy Can I Go Out & Kill Tonight tab

Intro : x3  (strumming Not Calculated)
| ---------- |
| ---------- |
| -----5---- |
| --7--5---- |
| --7--3---- |
| --5------- |

verse : x8
| ----------------- |
| ----------------- |
| --------5-------- |
| --7--7--5--7--5-- |
| --7--7--3--7--5-- |
| --5--5-----5--3-- |

chorus : x8
| ------------------- |
| ------------------- |
| --------5---------- |
| --5--7--5--7--5---- |
| --5--7--3--7--5---- |
| --3--5-----5--3---- |

chorus : x8
| ------------------- |
| ------------------- |
| --------5---------- |
| --5--7--5--7--5---- |
| --5--7--3--7--5---- |
| --3--5-----5--3---- |

chorus : x8
| ------------------- |
| ------------------- |
| --------5---------- |
| --5--7--5--7--5---- |
| --5--7--3--7--5---- |
| --3--5-----5--3---- |

chorus : x8
| ------------------- |
| ------------------- |
| --------5---------- |
| --5--7--5--7--5---- |
| --5--7--3--7--5---- |
| --3--5-----5--3---- |

chorus : x8
| ------------------- |
| ------------------- |
| --------5---------- |
| --5--7--5--7--5---- |
| --5--7--3--7--5---- |
| --3--5-----5--3---- |

End On :
| ----- |
| ----- |
| ----- |
| --5-- |
| --5-- |
| --3-- |
Tap to rate this tab
# A B C D E F G H I J K L M N O P Q R S T U V W X Y Z