Song name
# A B C D E F G H I J K L M N O P Q R S T U V W X Y Z

Misfits - Return Of Fly tab

Intro : x4
| -------- |
| -------- |
| -------- |
| --7--3-- |
| --7--3-- |
| --5--1-- |

Verse : x4
| -------------- |
| -------------- |
| -------------- |
| --77-77-33-33- |
| --77-77-33-33- |
| --55-55-11-11- |

chorus : x4
| ---------------------- |
| ---------------------- |
| --99999999--77777777-- |
| --99999999--77777777-- |
| --77777777--55555555-- |
| ---------------------- |

Verse : x4
| -------------- |
| -------------- |
| -------------- |
| --77-77-33-33- |
| --77-77-33-33- |
| --55-55-11-11- |

chorus : x8
| ---------------------- |
| ---------------------- |
| --99999999--77777777-- |
| --99999999--77777777-- |
| --77777777--55555555-- |
| ---------------------- |

Verse : x8
| -------------- |
| -------------- |
| -------------- |
| --77-77-33-33- |
| --77-77-33-33- |
| --55-55-11-11- |

Intro : x 12
| -------- |
| -------- |
| -------- |
| --7--3-- |
| --7--3-- |
| --5--1-- |
Tap to rate this tab
 
# A B C D E F G H I J K L M N O P Q R S T U V W X Y Z