Song name
# A B C D E F G H I J K L M N O P Q R S T U V W X Y Z

Misfits - Father tab

Intro

E|-8-8-----------6-8-10-6-6-6-\-4-4--------6-4-1-3-4-1-3-|
A|-8-8-9-8-6-4-3----------6-6---4-4--4-3-1---------------|
D|-8-8--------------------6-6---4-4----------------------|
G|-------------------------------------------------------|
B|-------------------------------------------------------|
e|-------------------------------------------------------|

E|-8-8------------6-8-10-6---4-4--------6-4-1-3-4-1-3-4-3-|
A|-8-8--9-8-6-4-3------------4-4--4-3-1---------------4-3-|
D|-8-8-----------------------4-4----------------------4-3-|
G|--------------------------------------------------------|
B|--------------------------------------------------------|
e|--------------------------------------------------------|

Verse

E|-8--6--4--3----8--6--4--3----8--6--4--3----8--6--4--3--|
A|-8--6--4--3----8--6--4--3----8--6--4--3----8--6--4--3--|
D|-8--6--4--3----8--6--4--3----8--6--4--3----8--6--4--3--|
G|-------------------------------------------------------|
B|-------------------------------------------------------|
e|-------------------------------------------------------|

Chorus

E|-8--------11---13---8--------11---13--------13---11------|
A|-8---9----11---13---8---9----11---13---9----13---11---8--|
D|-8---11---11---13---8---11---11---13---11---13---11---10-|
G|-----11-----------------11-------------11-------------10-|
B|---------------------------------------------------------|
e|---------------------------------------------------------|
Tap to rate this tab
# A B C D E F G H I J K L M N O P Q R S T U V W X Y Z