Song name
# A B C D E F G H I J K L M N O P Q R S T U V W X Y Z

Misfits - Helena tab

Song:   Helena
Band:   The Misfits
Album:  Famous Monsters
Tunes: half a step down

Dude,
This is one  of my favorites from the Misfits. (It is played a little differently live,
this is pretty much it.  If you look at this and then listen to it live, you can figure
out, its EASY!).  This is the REAL misfits, not the gay ones today.  Oh, these were the 
days. Well, I'm not saying I hate the present day Misfits, but they suck compared
what they used to be.  Oh, these WERE the awesome days... Hope you like it (well 
I don't give a shit 'cause I'm tabbing it anyway you fother muckers!!)

Tuning: half step down (usually for most misfits songs)

e/----------------------------------------------------|
B/----------------------------------------------------|
G/----------------------------------------------------|
D/-----4----------4-----------------------------------|
A/--6--2--4----6--2--4-----2-4-5----------------------|
E/--4-----2----4-----2-----0-2-3----------------------|
                                  drums come in

e/--------------------------------------|
B/--------------------------------------|
G/--------------------------------------|
D/----4-------------4-------------------|
A/--6-2-6--2-4-3--6-2-6--2-4-5----------|
E/--4---4--0-2-5--4---4--0-2-3----------|

     Vocals start, "If i cut off your arms, cut off your legs, would you still love me, anyway?"
e/--------------------------------------|
B/--------------------------------------|
G/--------------------------------------|
D/----4-------------4-------------------|
A/--6-2-6--2-4-3--6-2-6--2-4-5----------|
E/--4---4--0-2-5--4---4--0-2-3----------|

     "If you're bound and you're gagged, drapped and displayed.  Would you still love 
anyway?"
e/--------------------------------------|
B/--------------------------------------|
G/--------------------------------------|
D/----4-------------4-------------------|
A/--6-2-6--2-4-3--6-2-6--2-4-5----------|
E/--4---4--0-2-5--4---4--0-2-3----------|

  "Why don't you love me anyway?  Why don't you love me anyway?"
e/--------------------------------------|
B/--------------------------------------|
G/--------------------------------------|
D/----4-------------4-------------------|
A/--6-2-6--2-4-3--6-2-6--2-4-5----------|
E/--4---4--0-2-5--4---4--0-2-3----------|

      "If I cut off your arms, and I cut  off your legs.  Would you still love me, anyway?"
e/--------------------------------------|
B/--------------------------------------|
G/--------------------------------------|
D/----4-------------4-------------------|
A/--6-2-6--2-4-3--6-2-6--2-4-5----------|
E/--4---4--0-2-5--4---4--0-2-3----------|

      "If you're bound and you're gagged, Drapped and Displayed.  Would you still love
LOVE ME ANYWAY???"
e/--------------------------------------|
B/--------------------------------------|
G/--------------------------------------|
D/----4-------------4-------------------|
A/--6-2-6--2-4-3--6-2-6--2-4-5----------|
E/--4---4--0-2-5--4---4--0-2-3----------|

            "Why don't you love me anyway?"
e/--------------------------------------------|
B/--------------------------------------------|
G/--------------------------------------------|
D/---------4-4-4------------------------------|
A/--6-6-6--2-2-2---4-4-4-4-4-4-4-4---2-4-5----|
E/--4-4-4----------2-2-2-2-2-2-2-2---0-2-3----|
     l---l  l---l   l-------------------------|l
       pm     pm          pm

            "Why don't you love me anyway?"
e/--------------------------------------------|
B/--------------------------------------------|
G/--------------------------------------------|
D/---------4-4-4------------------------------|
A/--6-6-6--2-2-2---4-4-4-4-4-4-4-4---2-4-5----|
E/--4-4-4----------2-2-2-2-2-2-2-2---0-2-3----|
     l---l  l---l   l-------------------------|l
       pm     pm          pm

           "Why don't you love me anyway?"
e/--------------------------------------------|
B/--------------------------------------------|
G/--------------------------------------------|
D/---------4-4-4------------------------------|
A/--6-6-6--2-2-2---4-4-4-4-4-4-4-4---2-4-5----|
E/--4-4-4----------2-2-2-2-2-2-2-2---0-2-3----|
     l---l  l---l   l-------------------------|l
       pm     pm          pm

              get kind of slower at this part
                 "WHY DON'T YOU LOVE ME ANYWAY?"
e/---------------------------------------|
B/---------------------------------------|
G/---------------------------------------|
D/---------4-4-4-------------------------|
A/--6-6-6--2-2-2---4---------------------|
E/--4-4-4----------2---------------------|
     l---l  l----------------------------|l    let last note ring
       pm     pm


e/----------------------------------------------------------------------|
B/----------------------------------------------------------------------|
G/----------------------------------------------------------------------|
D/--9-9-9 10-10-10-7-7-7-9-9-9--3-7-4-4-4-5-5-5--2-2-2--4-4-4-----------|
A/--7-7-7-8--8--8--5-5-5-7-7-7--5-5-2-2-2-3-3-3--0-0-0--2-2-2--5-7------|
E/-------------------------------------------------------------3-5------|


e/----------------------------------------------------------------------|
B/----------------------------------------------------------------------|
G/----------------------------------------------------------------------|
D/--9-9-9 10-10-10-7-7-7-9-9-9--3-7-4-4-4-5-5-5--2-2-2--4-4-4-----------|
A/--7-7-7-8--8--8--5-5-5-7-7-7--5-5-2-2-2-3-3-3--0-0-0--2-2-2--5-7------|
E/-------------------------------------------------------------3-5------|


e/---------------------------------------------------------------|
B/---------------------------------------------------------------|
G/---------------------------------------------------------------|
D/---------------------------------------------------------------|
A/-----------------9-----------10-10-10-10--9--------------------|
E/--0 7-8-10-8-7-5-7--0-7-8-10--8--8--8--8--7--------------------|


e/---------------------------------------------------------------|
B/---------------------------------------------------------------|
G/---------------------------------------------------------------|
D/---------------------------------------------------------------|
A/-----------------9-----------10-10-10-10--9--------------------|
E/--0 7-8-10-8-7-5-7--0-7-8-10--8--8--8--8--7--------------------|

"Cutting with this knife, blood is spilling everwhere."
e/-----------------------------------------------------|
B/-----------------------------------------------------|
G/-----------------------------------------------------|
D/--9-9-9-9-9-9-9-9-9-9-9--7-7-7-7-7-7-7-7-7-7-7-------|
A/--7-7-7-7-7-7-7-7-7-7-7--5-5-5-5-5-5-5-5-5-5-5-------|
E/-----------------------------------------------------|

"She will be my wife, secondary spine."
e/-----------------------------------------------------|
B/-----------------------------------------------------|
G/-----------------------------------------------------|
D/--9-9-9-9-9-9-9-9-9-9-9--7-7-7-7-7-7-7-7-7-7-7-------|
A/--7-7-7-7-7-7-7-7-7-7-7--5-5-5-5-5-5-5-5-5-5-5-------|
E/-----------------------------------------------------|

"Incisions must be accurate, I know what to do."
e/-----------------------------------------------------|
B/-----------------------------------------------------|
G/-----------------------------------------------------|
D/--9-9-9-9-9-9--12-11-7---7-7-7-7-7-7-7-7--5-7--------|
A/--7-7-7-7-7-7--10-9--9---5-5-5-5-5-5-5-5--3-5--------|
E/-----------------------------------------------------|

"My hands are trembling, I can't spare to slip up with this-
e/-----------------------------------------------------|
B/-----------------------------------------------------|
G/-----------------------------------------------------|
D/--9-9-9-9-9-9--12-11-7---7-7-7-7-7-7-7-7--5-7--------|
A/--7-7-7-7-7-7--10-9--9---5-5-5-5-5-5-5-5--3-5--------|
E/-----------------------------------------------------|

-KNIIIIIIIIIIIIIIIIIIIIIIIIIIIIIIIIIIIIIIIIIIIFE. FAH!" (hahha, funny that I actually
the "FAH". Lmao.)
e/---------------------------------------------------------------|
B/---------------------------------------------------------------|
G/---------------------------------------------------------------|
D/---------------------------------------------------------------|
A/-----------------9-----------10-10-10-10--9--------------------|
E/--0 7-8-10-8-7-5-7--0-7-8-10--8--8--8--8--7--------------------|


e/---------------------------------------------------------------|
B/---------------------------------------------------------------|
G/---------------------------------------------------------------|
D/---------------------------------------------------------------|
A/-----------------9-----------10-10-10-10--9--------------------|
E/--0 7-8-10-8-7-5-7--0-7-8-10--8--8--8--8--7--------------------|

"Her beauty is so illogical, the beast come gliding in."
e/-----------------------------------------------------|
B/-----------------------------------------------------|
G/-----------------------------------------------------|
D/--9-9-9-9-9-9-9-9-9-9-9--7-7-7-7-7-7-7-7-7-7-7-------|
A/--7-7-7-7-7-7-7-7-7-7-7--5-5-5-5-5-5-5-5-5-5-5-------|
E/-----------------------------------------------------|

"Hideous chameleon, stripped down to her skin."
e/-----------------------------------------------------|
B/-----------------------------------------------------|
G/-----------------------------------------------------|
D/--9-9-9-9-9-9-9-9-9-9-9--7-7-7-7-7-7-7-7-7-7-7-------|
A/--7-7-7-7-7-7-7-7-7-7-7--5-5-5-5-5-5-5-5-5-5-5-------|
E/-----------------------------------------------------|

"Dance to the burning flame. Pressure exhumes the pain."
e/------------------------------------------------------|
B/------------------------------------------------------|
G/------------------------------------------------------|
D/--9-9-9-9-9-9--12-11-7---7-7-7-7-7-7-7-7--5-7---------|
A/--7-7-7-7-7-7--10-9--9---5-5-5-5-5-5-5-5--3-5---------|
E/------------------------------------------------------|
     l----------l           l---------------------------|l
         pm                        pm

"The night bursts into--
e/------------------------------------------------------|
B/------------------------------------------------------|
G/------------------------------------------------------|
D/--9-9-9-9-9-9--12-11-7---7-7-7-7-7-7-7-7--5-7---------|
A/--7-7-7-7-7-7--10-9--9---5-5-5-5-5-5-5-5--3-5---------|
E/------------------------------------------------------|
     l----------l           l---------------------------|l
         pm                        pm

FLAMES!"

                kind of let each note ring for a very small amount of time

e/---------------------------------|
B/---------------------------------|
G/---------------------------------|
D/--9-10--7--9-5-7-4-3-2-4---------|
A/--7--8--5--7-3-5-2-5-0-2-3-5-----|
E/-------------------------5-7-----|

"Dance Helena!  Dance!"

e/---------------------------------|
B/---------------------------------|
G/---------------------------------|
D/--9-10--7--9-5-7-4-3-2-4---------|
A/--7--8--5--7-3-5-2-5-0-2-3-5-----|
E/-------------------------5-7-----|

"WHOA! OHH-OH! OH!" (there i go again hahha)

                now start making the notes shorter and not let them ring
e/---------------------------------|
B/---------------------------------|
G/---------------------------------|
D/--9-10--7--9-5-7-4-3-2-4---------|
A/--7--8--5--7-3-5-2-5-0-2-3-5-----|
E/-------------------------5-7-----|


e/---------------------------------|
B/---------------------------------|
G/---------------------------------|
D/--9-10--7--9-5-7-4-3-2-4---------|
A/--7--8--5--7-3-5-2-5-0-2-3-5-----|
E/-------------------------5-7-----|


e/-----------------------------------------------|
B/-----------------------------------------------|
G/-----------------------------------------------|
D/--4-4-4-4-4---4-------5-5-5-5-5---5------------|
A/--2-2-2-2-2---2--5-7--3-3-3-3-3---3---5-7------|
E/-----------------3-5------------------3-5------|
     l-------l            l----------------------|l
       pm                    pm


e/--------------------------------------------------|
B/--------------------------------------------------|
G/--------------------------------------------------|
D/--4-4-4-4-4---4-----------------------------------|
A/--2-2-2-2-2---2--5-5-7-7-----4--------------------|
E/-----------------3-3-5-5-----2--------------------|
     l-------l    l-------l-------------------------|              let last note ring
       pm             pm

e/----------------------------------------------------|
B/----------------------------------------------------|
G/----------------------------------------------------|
D/-----4----------4-----------------------------------|
A/--6--2--4----6--2--4-----2-4-5----------------------|
E/--4-----2----4-----2-----0-2-3----------------------|
                                  (drums in backround)

 "If I cut off your arms and I cut off your legs, would you still love me, anyway?"

e/--------------------------------------------|
B/--------------------------------------------|
G/--------------------------------------------|
D/---------4-4-4------------------------------|
A/--6-6-6--2-2-2---4-4-4-4-4-4-4-4---2-4-5----|
E/--4-4-4----------2-2-2-2-2-2-2-2---0-2-3----|
     l---l  l---l   l-------------------------|l
       pm     pm          pm

e/--------------------------------------------|
B/--------------------------------------------|
G/--------------------------------------------|
D/---------4-4-4------------------------------|
A/--6-6-6--2-2-2---4-4-4-4-4-4-4-4---2-4-5----|
E/--4-4-4----------2-2-2-2-2-2-2-2---0-2-3----|
     l---l  l---l   l-------------------------|l
       pm     pm          pm


           "There's a spot on the floor, where your limbs used to be. And I closed the door--
e/--------------------------------------------|
B/--------------------------------------------|
G/--------------------------------------------|
D/---------4-4-4------------------------------|
A/--6-6-6--2-2-2---4-4-4-4-4-4-4-4---2-4-5----|
E/--4-4-4----------2-2-2-2-2-2-2-2---0-2-3----|
     l---l  l---l   l-------------------------|l
       pm     pm          pm

e/--------------------------------------------|
B/--------------------------------------------|
G/--------------------------------------------|
D/---------4-4-4------------------------------|
A/--6-6-6--2-2-2---4-4-4-4-4-4-4-4---2-4-5----|
E/--4-4-4----------2-2-2-2-2-2-2-2---0-2-3----|
     l---l  l---l   l-------------------------|l
       pm     pm          pm

--On my FANTISIES.--

           ("Why don't you love me anyway?")
e/--------------------------------------------|
B/--------------------------------------------|
G/--------------------------------------------|
D/---------4-4-4------------------------------|
A/--6-6-6--2-2-2---4-4-4-4-4-4-4-4---2-4-5----|
E/--4-4-4----------2-2-2-2-2-2-2-2---0-2-3----|
     l---l  l---l   l-------------------------|l
       pm     pm          pm

---MY FANTASIES."
           ("Why don't you love me anyway?")
e/--------------------------------------------|
B/--------------------------------------------|
G/--------------------------------------------|
D/---------4-4-4------------------------------|
A/--6-6-6--2-2-2---4-4-4-4-4-4-4-4---2-4-5----|
E/--4-4-4----------2-2-2-2-2-2-2-2---0-2-3----|
     l---l  l---l   l-------------------------|l
       pm     pm          pm


"HELENA!"
      ("Why don't you love me anyway?")
e/--------------------------------------------|
B/--------------------------------------------|
G/--------------------------------------------|
D/---------4-4-4------------------------------|
A/--6-6-6--2-2-2---4-4-4-4-4-4-4-4---2-4-5----|
E/--4-4-4----------2-2-2-2-2-2-2-2---0-2-3----|
     l---l  l---l   l-------------------------|l
       pm     pm          pm


"HELENA!"
          ( "Why don't you love me anyway?")
e/--------------------------------------------|
B/--------------------------------------------|
G/--------------------------------------------|
D/---------4-4-4------------------------------|
A/--6-6-6--2-2-2---4-4-4-4-4-4-4-4---2-4-5----|
E/--4-4-4----------2-2-2-2-2-2-2-2---0-2-3----|
     l---l  l---l   l-------------------------|l
       pm     pm          pm
Tap to rate this tab
# A B C D E F G H I J K L M N O P Q R S T U V W X Y Z