Song name
# A B C D E F G H I J K L M N O P Q R S T U V W X Y Z

Misfits - Hell Night tab

-------------------------------------------------------------------------------
                             Misfits - Hell Night
-------------------------------------------------------------------------------
Tabbed by:Subligar
Here's a proper tab tuned a half step down like it should be.
Listen to the song for the rhythm, especially the start of the verse and middle of the chorus.
The whole song should probably be downstrums(if you are a monster), but the Pre-
Chorus needs the heavy hits.

Tuning: 1/2 step down

Intro
eb|-----------:-----------------|
Bb|-----------:-----------------|
Gb|-----------:-----------------|
Db|-----------:-----------------|
Ab|9999999\7/-:---\4-4-4-5-5-7--|
Eb|7777777\5/-:---\2-2-2-3-3-5--|
    repeat 7x- then big slide to
Verse
eb|-----------:-----------------|
Bb|-----------:-----------------|
Gb|-----------:-----------------|
Db|-----------:-----------------|
Ab|9999999\7/-:---\4-4-4-5-5-7--|
Eb|7777777\5/-:---\2-2-2-3-3-5--|
    repeat 3x

Pre-Chorus  only downstrums
eb|---------------------------------|
Bb|---------------------------------|
Gb|---------------------------------|
Db|---------------------------------|
Ab|7-7-7-7-7-7-7\5/7-7-7-7-7-7-7-7--|
Eb|5-5-5-5-5-5-5\3/5-5-5-5-5-5-5-5--|

Chorus      Hell night, Whoa
eb|-------------------------------------|
Bb|-------------------------------------|
Gb|-------------------------------------|
Db|7-777777------7----------------------|
Ab|5-555555-7-77-5-7-5-555555-7-777777--|
Eb|---------5-55---5-3-333333-5-555555--|

End
eb|----------:------|
Bb|----------:------|
Gb|----------:------|
Db|----------:------|
Ab|9999999\7/:9--9--|
Eb|7777777\5/:7--7--|
   repeat 4x

Order:

Intro
Verse
Pre-Chorus
Chorus-4x
Verse-2x
Pre-Chorus
Chorus-4x
Verse-2x
Pre-Chorus
Chorus-6x
End

************************************

| /   slide up
| \   slide down
| h   hammer-on
| p   pull-off
| ~   vibrato
| +   harmonic
| x   Mute note
| b   Bend
| pb  Pre-bend
| br  Bend release
| pbr Pre-bend release
| brb Bend release bend

************************************
Tap to rate this tab
# A B C D E F G H I J K L M N O P Q R S T U V W X Y Z