Song name
# A B C D E F G H I J K L M N O P Q R S T U V W X Y Z

Misfits - All Hell Breaks Loose tab

Band: Misfits
Song: All Hell Breaks Loose

Tabber: John Cukras
Email: riffreaper@yahoo.com

Tuning: normal

Riff 1:  A                              B
E----------------------------------|---------------|
B----------------------------------|---------------|
G----------------------------------|---------------|
D-77777777-101010-5555-3333 x's 5--|-10-10-----5-3-|
A-55555555-888888-3333-1111--------|-8--8------3-1-|
E----------------------------------|-------000-----|
pm                                         ...

Riff 1: A x's 4 , B

Riff 2:
E------------------------------------|
B------------------------------------|
G------------------------------------|
D-7777777------5555-777777------5555-| x's 2
A-5555555-5555-3333-555555-5555-3333-|
E---------3333-------------3333------|

Riff 1: A x's 4 , B (no pm's)

Riff 2 x's 4

End:
E----------|
B----------|
G----------|
D-7-----10-|
A-5--5--8--|
E----3-----|
Tap to rate this tab
 
# A B C D E F G H I J K L M N O P Q R S T U V W X Y Z