Guitaretab - guitar tabs
Song name
# A B C D E F G H I J K L M N O P Q R S T U V W X Y Z

Misfits - Angelfuck tab

Misfits  Angelfuck!

Well, here ya go! & Its 100% accurate! Contact me at: rattlehead.colio@hotmail.com

Intro:
e|-----------------------------------------------------|
B|-----------------------------------------------------|
G|-----------------------------------------------------|
D|-7-7-7-7-7-7--7-7-7-7-7-7--7-7-7-7-7-7--7-7-7-7-7-7--|
A|-7-7-7-7-7-7--7-7-7-7-7-7--7-7-7-7-7-7--7-7-7-7-7-7--|
E|-5-5-5-5-5-5--5-5-5-5-5-5--5-5-5-5-5-5--5-5-5-5-5-5--|

Verse:                                                  (x2)
e|---------------------------------------------------------|
B|---------------------------------------------------------|
G|---------------------------7-7-7-7-7-7--7-7-7-7-7-7-7-7--|
D|-7-7-7-7-7-7--7-7-7-7-7-7--7-7-7-7-7-7--7-7-7-7-7-7-7-7--|
A|-5-5-5-5-5-5--5-5-5-5-5-5--5-5-5-5-5-5--5-5-5-5-5-5-5-5--|
E|-5-5-5-5-5-5--5-5-5-5-5-5--------------------------------|

Chorus:
e|-------------------------------------------------------------------|
B|-------------------------------------------------------------------|
G|-------------------------------------------------------------------|
D|-4-4-4-4-4-4-4-4-4-4-4-4-4-4-4-4--2-2-2-2-2-2-2-2-2-2-2-2-2-2-2-2--|
A|-4-4-4-4-4-4-4-4-4-4-4-4-4-4-4-4--2-2-2-2-2-2-2-2-2-2-2-2-2-2-2-2--|
E|-2-2-2-2-2-2-2-2-2-2-2-2-2-2-2-2--0-0-0-0-0-0-0-0-0-0-0-0-0-0-0-0--|

e|-------------------------------------------------------------------|
B|-------------------------------------------------------------------|
G|-7-7-7-7-7-7-7-7-7-7-7-7-7-7-7-7--9-9-9-9-9-9-9-9-9-9-9-9-9-9-9-9--|
D|-7-7-7-7-7-7-7-7-7-7-7-7-7-7-7-7--9-9-9-9-9-9-9-9-9-9-9-9-9-9-9-9--|
A|-5-5-5-5-5-5-5-5-5-5-5-5-5-5-5-5--7-7-7-7-7-7-7-7-7-7-7-7-7-7-7-7--|
E|-------------------------------------------------------------------|

Verse:                                                  (x2)
e|---------------------------------------------------------|
B|---------------------------------------------------------|
G|---------------------------7-7-7-7-7-7--7-7-7-7-7-7-7-7--|
D|-7-7-7-7-7-7--7-7-7-7-7-7--7-7-7-7-7-7--7-7-7-7-7-7-7-7--|
A|-5-5-5-5-5-5--5-5-5-5-5-5--5-5-5-5-5-5--5-5-5-5-5-5-5-5--|
E|-5-5-5-5-5-5--5-5-5-5-5-5--------------------------------|
[ Tab from: http://www.guitaretab.com/m/misfits/41257.html ]
Chorus:
e|-------------------------------------------------------------------|
B|-------------------------------------------------------------------|
G|-------------------------------------------------------------------|
D|-4-4-4-4-4-4-4-4-4-4-4-4-4-4-4-4--2-2-2-2-2-2-2-2-2-2-2-2-2-2-2-2--|
A|-4-4-4-4-4-4-4-4-4-4-4-4-4-4-4-4--2-2-2-2-2-2-2-2-2-2-2-2-2-2-2-2--|
E|-2-2-2-2-2-2-2-2-2-2-2-2-2-2-2-2--0-0-0-0-0-0-0-0-0-0-0-0-0-0-0-0--|

e|-------------------------------------------------------------------|
B|-------------------------------------------------------------------|
G|-7-7-7-7-7-7-7-7-7-7-7-7-7-7-7-7--9-9-9-9-9-9-9-9-9-9-9-9-9-9-9-9--|
D|-7-7-7-7-7-7-7-7-7-7-7-7-7-7-7-7--9-9-9-9-9-9-9-9-9-9-9-9-9-9-9-9--|
A|-5-5-5-5-5-5-5-5-5-5-5-5-5-5-5-5--7-7-7-7-7-7-7-7-7-7-7-7-7-7-7-7--|
E|-------------------------------------------------------------------|

Interlude:                                    (x4)
e|-----------------------------------------------|
B|-----------------------------------------------|
G|----------------------------------------7--7---|
D|-7-7-7-7-7-7--7-7-7-7-7-7--7-7-7-7-7-7--7--7---|
A|-7-7-7-7-7-7--7-7-7-7-7-7--7-7-7-7-7-7--5--5---|
E|-5-5-5-5-5-5--5-5-5-5-5-5--5-5-5-5-5-5---------|

Verse:                                                  (x2)
e|---------------------------------------------------------|
B|---------------------------------------------------------|
G|---------------------------7-7-7-7-7-7--7-7-7-7-7-7-7-7--|
D|-7-7-7-7-7-7--7-7-7-7-7-7--7-7-7-7-7-7--7-7-7-7-7-7-7-7--|
A|-5-5-5-5-5-5--5-5-5-5-5-5--5-5-5-5-5-5--5-5-5-5-5-5-5-5--|
E|-5-5-5-5-5-5--5-5-5-5-5-5--------------------------------|

Chorus:
e|-------------------------------------------------------------------|
B|-------------------------------------------------------------------|
G|-------------------------------------------------------------------|
D|-4-4-4-4-4-4-4-4-4-4-4-4-4-4-4-4--2-2-2-2-2-2-2-2-2-2-2-2-2-2-2-2--|
A|-4-4-4-4-4-4-4-4-4-4-4-4-4-4-4-4--2-2-2-2-2-2-2-2-2-2-2-2-2-2-2-2--|
E|-2-2-2-2-2-2-2-2-2-2-2-2-2-2-2-2--0-0-0-0-0-0-0-0-0-0-0-0-0-0-0-0--|

e|-------------------------------------------------------------------|
B|-------------------------------------------------------------------|
G|-7-7-7-7-7-7-7-7-7-7-7-7-7-7-7-7--9-9-9-9-9-9-9-9-9-9-9-9-9-9-9-9--|
D|-7-7-7-7-7-7-7-7-7-7-7-7-7-7-7-7--9-9-9-9-9-9-9-9-9-9-9-9-9-9-9-9--|
A|-5-5-5-5-5-5-5-5-5-5-5-5-5-5-5-5--7-7-7-7-7-7-7-7-7-7-7-7-7-7-7-7--|
E|-------------------------------------------------------------------|

Interlude:                                    (x4)
e|-----------------------------------------------|----|
B|-----------------------------------------------|----|
G|----------------------------------------7--7---|----|
D|-7-7-7-7-7-7--7-7-7-7-7-7--7-7-7-7-7-7--7--7---|-7--|
A|-7-7-7-7-7-7--7-7-7-7-7-7--7-7-7-7-7-7--5--5---|-7--|
E|-5-5-5-5-5-5--5-5-5-5-5-5--5-5-5-5-5-5---------|-5--|

Enjoy!
Related for Angelfuck tab