Song name
# A B C D E F G H I J K L M N O P Q R S T U V W X Y Z

Misfits - Bloodfeast tab

----------------------------------------------------------------------------
			     bloodfeast - misfits
----------------------------------------------------------------------------

Tabbed by: Davey13
Email:bill_clinton_the_man@hotmail.co.uk


intro/riff 1
e|-----------------------------------------------------|
B|-----------------------------------------------------|
G|------9-99999--7-77777--7-77777--9-99999-10-10-10-10-|
D|------9-99999--7-77777--7-77777--9-99999-10-10-10-10-|
A|------7-77777--5-55555--5-55555--7-77777-8--8--8--8--|
E|-----------------------------------------------------|


chorus/riff 2

e|-----------------------------------------------------|
B|-----------------------------------------------------|
G|------------------------9-999999-10-10-10-10---------|
D|--7-77777-10-1010101010-9-999999-10-10-10-10---------|
A|--7-77777-10-1010101010-7-777777-8--8--8--8----------|
E|--5-55555-8--8-8-8-8-8-------------------------------|

alternate riff2

e|-----------------------------------------------------|
B|-----------------------------------------------------|
G|----------7-77777-9-999999-10-10-10-10---------------|
D|--7-77777-7-77777-9-999999-10-10-10-10---------------|
A|--7-77777-5-55555-7-777777-8--8--8--8----------------|
E|--5-55555--------------------------------------------|


song flow:

intro/riff1       x4
chorus/riff2      x2
intro/riff1       x4
chorus/riff2      x2
alternate riff2   x2
intro/riff1       x4
chorus/riff2      x2
alternate riff2   x2
intro/riff1       x4


first tab be nice!
pretty sure thats correct mail me corrections i'd appreciate it.
Tap to rate this tab
 
# A B C D E F G H I J K L M N O P Q R S T U V W X Y Z