Song name
# A B C D E F G H I J K L M N O P Q R S T U V W X Y Z

Misfits - Bruiser tab

The another tab is just.. shit =/
this is the real and correct version.
please rate =D

enjoy!
*Standar Tuning*

Intro:
e|----------------------------------------|
B|----------------------------------------|
G|------------666666----------------------|
D|----888888--666666--444444--666666------|
A|----888888--444444--444444--666666------|
E|----666666----------222222--444444------|

e|---------------------------------------------------|
B|---------------------------------------------------|
G|------------666666----(13 times)----(13 times)-----|
D|----888888--666666--4444444444444--6666666666666---|
A|----888888--444444--4444444444444--6666666666666---|
E|----666666----------2222222222222--4444444444444---|
 pm:                  .............  .............


Verse:
e|----------------------------------------------------|
B|----------------------------------------------------|
G|-----666666666--------------------------------------|  repeat (X2)
D|-----666666666--888888888--444444444--666666666-----|
A|-----444444444--888888888--444444444--666666666-----|
E|----------------666666666--222222222--444444444-----|
  "ohhh i feel these..."


Chorus:
e|------------------------------------------|
B|------------------------------------------|
G|-----666666----------666666---------------| repeat (X3)
D|-----666666--4-4--6--666666---4-4-6-6-----|
A|-----444444--4-4--6--444444---4-4-6-6-----|
E|-------------2-2--4----------/2-2-4-4-----|
  "ohhh in hell i'll..."

Chorus end:
e|--------------------------------|
B|--------------------------------|
G|-----66666666-------------------|
D|-----66666666--666666666666-----|
A|-----44444444--666666666666-----|
E|---------------444444444444-----|
 pm:             ............


Verse:
e|------------------------------------------------------------|
B|------------------------------------------------------------|
G|----666666666--------------------------------------  repeat-| (X2)
D|----666666666--888888888--444444444--666666666--------------|
A|----444444444--888888888--444444444--666666666--------------|
E|---------------666666666--222222222--444444444--------------|
   "Angel of death..."

Chorus:
e|-------------------------------------------------|
B|-------------------------------------------------|
G|-----666666----------66666--------------- repeat-| (X3)
D|-----666666--4-4--6--66666---4-4-6-6-------------|
A|-----444444--4-4--6--44444---4-4-6-6-------------|
E|-------------2-2--4---------/2-2-4-4-------------|
  "ohhh in hell i'll..."

Chorus end:
e|--------------------------------|
B|--------------------------------|
G|-----66666666-------------------|
D|-----66666666--666666666666-----|
A|-----44444444--666666666666-----|
E|---------------444444444444-----|
 pm:             ............

Bridge:
e|---------------------------------------|
B|---------------------------------------|
G|---------------------------------------|
D|-----444444--111111--444444--666666----|
A|-----444444--111111--444444--666666----|
E|-----222222----------222222--444444----|
"The pain..."
  pm:          ......

Chorus:
e|-------------------------------------------------|
B|-------------------------------------------------|
G|-----666666----------66666--------------- repeat-| (X3)
D|-----666666--4-4--6--66666---4-4-6-6-------------|
A|-----444444--4-4--6--44444---4-4-6-6-------------|
E|-------------2-2--4---------/2-2-4-4-------------|
  "ohhh in hell i'll..."

Chorus end:
e|--------------------------------|
B|--------------------------------|
G|-----66666666-------------------|
D|-----66666666--666666666666-----|
A|-----44444444--666666666666-----|
E|---------------444444444444-----|
 pm:             ............

Finally:
e|-----------------------------------|
B|-----------------------------------|
G|------666666-----------------------|
D|------666666--4-4-4-4-6-6-6-6------|   repeat (X4)
A|------444444--4-4-4-4-6-6-6-6------|
E|--------------2-2-2-2-4-4-4-4------|

e|------------|
B|------------|
G|-----6------|
D|-----6------| this sounds till the end.
A|-----4------|
E|------------|


any commentary, suggestions.
pollitico@gmail.com

_______

Te amo mi amor =D
Tap to rate this tab
# A B C D E F G H I J K L M N O P Q R S T U V W X Y Z