Song name
# A B C D E F G H I J K L M N O P Q R S T U V W X Y Z

Misfits - Children In Heat tab

-------------------------------------------------------------------------------
			     SONG NAME - Band Name
-------------------------------------------------------------------------------
Tabbed by:Kurtd121

this is an easy tab and no one's posted anything good, wich i was suprised to see,
besides the chords. anyway this is the whole song.

Intro:

E:|-------------------------------------------------|
B:|-----4-4-4-4-4-4-4-----4-4-4-4-4-4-4-4-4-4-4-4-4-|
G:|-----4-4-4-4-4-4-4-4-4-4-4-4-4-4-4-4-4-4-4-4-4-4-|
D:|-4-4-4-4-4-4-4-4-4-4-4-4-4-4-4-4-4-4-4-4-4-4-4-4-|
A:|-2-2-2-2-2-2-2-2-2-2-2-2-2-2-2-2-2-2-2-2-2-2-2-2-|
E:|-------------------------------------------------|

Verse:

E:|-----------------------------------------------------------------|
B:|-----------------------------------------------------------------|
G:|-4-4-4-4-4-4-4-4-4-4-4-4-4-4-4-4-2---2---2-2---7-----7---7-7-7-7-|x2
D:|-4-4-4-4-4-4-4-4-4-4-4-4-4-4-4-4-2---2---2-2---7-----7---7-7-7-7-|
A:|-2-2-2-2-2-2-2-2-2-2-2-2-2-2-2-2-0---0---0-0---5-----5---5-5-5-5-|
E:|-----------------------------------------------------------------|

Pre-Chorus:

E:|---------------------------------|
B:|---------------------------------|
G:|-9-9-9-9-9-9-9-9-7-7-7-7-7-7-7-7-|x4
D:|-9-9-9-9-9-9-9-9-7-7-7-7-7-7-7-7-|
A:|-7-7-7-7-7-7-7-7-5-5-5-5-5-5-5-5-|
E:|---------------------------------|

E:|-0---0---0-0---------------------|
B:|-2---2---2-2---7---7-7---7-7-7-7-|
G:|-2---2---2-2---7---7-7---7-7-7-7-|x3
D:|-2---2---2-2---7---7-7---7-7-7-7-|
A:|-0---0---0-0---5---5-5---5-5-5-5-|
E:|---------------------------------|

E:|---------------------------------|
B:|---------------------------------|
G:|-9-9-9-9-9-9-9-9-9-9-9-9-9-9-9-9-|
D:|-9-9-9-9-9-9-9-9-9-9-9-9-9-9-9-9-|
A:|-7-7-7-7-7-7-7-7-7-7-7-7-7-7-7-7-|
E:|---------------------------------|

Chorus:

E:|-----------------------------------------------------------------|
B:|-----------------------------------------------------------------|
G:|-4-4-4-4-4-4-4-4-4-4-4-4-4-4-4-4-6-6-6-6-6-6-6-6-6-6-6-6-6-6-6-6-|
D:|-4-4-4-4-4-4-4-4-4-4-4-4-4-4-4-4-6-6-6-6-6-6-6-6-6-6-6-6-6-6-6-6-|
A:|-2-2-2-2-2-2-2-2-2-2-2-2-2-2-2-2-4-4-4-4-4-4-4-4-4-4-4-4-4-4-4-4-|
E:|-----------------------------------------------------------------|

E:|-0---0---0-0-----------------------------------------------------|
B:|-2---2---2-2---7---7-7---7-7-7-7---------------------------------|
G:|-2---2---2-2---7---7-7---7-7-7-7---------------------------------|
D:|-2---2---2-2---7---7-7---7-7-7-7-0-4-4-4-0-4-4-4-0-4-4-4-0-4-4-4-|
A:|-0---0---0-0---5---5-5---5-5-5-5-0-2-2-2-0-2-2-2-0-2-2-2-0-2-2-2-|
E:|-----------------------------------------------------------------|

E:|-----------------------------------------------------------------|
B:|-----------------------------------------------------------------|
G:|-4-4-4-4-4-4-4-4-4-4-4-4-4-4-4-4-6-6-6-6-6-6-6-6-6-6-6-6-6-6-6-6-|
D:|-4-4-4-4-4-4-4-4-4-4-4-4-4-4-4-4-6-6-6-6-6-6-6-6-6-6-6-6-6-6-6-6-|
A:|-2-2-2-2-2-2-2-2-2-2-2-2-2-2-2-2-4-4-4-4-4-4-4-4-4-4-4-4-4-4-4-4-|
E:|-----------------------------------------------------------------|

E:|-0---0---0-0-----------------------------------------------------|
B:|-2---2---2-2---7---7-7---7-7-7-7---------------------------------|
G:|-2---2---2-2---7---7-7---7-7-7-7---------------------------------|
D:|-2---2---2-2---7---7-7---7-7-7-7---4-4-4-0-4-4-4-0-4-4-4-4-4-4-4-|
A:|-0---0---0-0---5---5-5---5-5-5-5-0-2-2-2-0-2-2-2-0-2-2-2-2-2-2-2-|
E:|-----------------------------------------------------------------|

Last Chorus:

E:|-----------------------------------------------------------------|
B:|-----------------------------------------------------------------|
G:|-4---4---4---4---4---4---4---4---6---6---6---6---6---6---6---6---|
D:|-4---4---4---4---4---4---4---4---6---6---6---6---6---6---6---6---|
A:|-2---2---2---2---2---2---2---2---4---4---4---4---4---4---4---4---|
E:|-----------------------------------------------------------------|

E:|-0---0---0---0---------------------------------------------------|
B:|-2---2---2---2---7---7---7---7-----------------------------------|
G:|-2---2---2---2---7---7---7---7-----------------------------------|
D:|-2---2---2---2---7---7---7---7---0-4-4-4-0-4-4-4-0-4-4-4-0-4-4-4-|
A:|-0---0---0---0---5---5---5---5---0-2-2-2-0-2-2-2-0-2-2-2-0-2-2-2-|
E:|-----------------------------------------------------------------|

E:|-----------------------------------------------------------------|
B:|-----------------------------------------------------------------|
G:|-4-4-4-4-4-4-4-4-4-4-4-4-4-4-4-4-6-6-6-6-6-6-6-6-6-6-6-6-6-6-6-6-|
D:|-4-4-4-4-4-4-4-4-4-4-4-4-4-4-4-4-6-6-6-6-6-6-6-6-6-6-6-6-6-6-6-6-|
A:|-2-2-2-2-2-2-2-2-2-2-2-2-2-2-2-2-4-4-4-4-4-4-4-4-4-4-4-4-4-4-4-4-|
E:|-----------------------------------------------------------------|

E:|-0---0---0-0-----------------------------------------------------|
B:|-2---2---2-2---7---7-7---7-7-7-7---------------------------------|
G:|-2---2---2-2---7---7-7---7-7-7-7---------------------------------|
D:|-2---2---2-2---7---7-7---7-7-7-7-0-4-4-4-0-4-4-4-0-4-4-4-0-4-4-4-|
A:|-0---0---0-0---5---5-5---5-5-5-5-0-2-2-2-0-2-2-2-0-2-2-2-0-2-2-2-|
E:|-----------------------------------------------------------------|

E:|-----------------------------------------------------------------|
B:|-----------------------------------------------------------------|
G:|-4-4-4-4-4-4-4-4-4-4-4-4-4-4-4-4-6-6-6-6-6-6-6-6-6-6-6-6-6-6-6-6-|
D:|-4-4-4-4-4-4-4-4-4-4-4-4-4-4-4-4-6-6-6-6-6-6-6-6-6-6-6-6-6-6-6-6-|
A:|-2-2-2-2-2-2-2-2-2-2-2-2-2-2-2-2-4-4-4-4-4-4-4-4-4-4-4-4-4-4-4-4-|
E:|-----------------------------------------------------------------|

E:|-0---0---0-0-----------------------------------------------------|
B:|-2---2---2-2---7---7-7---7-7-7-7---------------------------------|
G:|-2---2---2-2---7---7-7---7-7-7-7---------------------------------|
D:|-2---2---2-2---7---7-7---7-7-7-7-0-4-4-4-0-4-4-4-0-4-4-4-0-4-4-4-|
A:|-0---0---0-0---5---5-5---5-5-5-5-0-2-2-2-0-2-2-2-0-2-2-2-0-2-2-2-|
E:|-----------------------------------------------------------------|

E:|-----------------------------------------------------------------|
B:|-----------------------------------------------------------------|
G:|-4-4-4-4-4-4-4-4-4-4-4-4-4-4-4-4-6-6-6-6-6-6-6-6-6-6-6-6-6-6-6-6-|
D:|-4-4-4-4-4-4-4-4-4-4-4-4-4-4-4-4-6-6-6-6-6-6-6-6-6-6-6-6-6-6-6-6-|
A:|-2-2-2-2-2-2-2-2-2-2-2-2-2-2-2-2-4-4-4-4-4-4-4-4-4-4-4-4-4-4-4-4-|
E:|-----------------------------------------------------------------|

E:|-0---0---0-0-----------------------------------------------------|
B:|-2---2---2-2---7---7-7---7-7-7-7-2---------------2---------------|
G:|-2---2---2-2---7---7-7---7-7-7-7-2---------------2---------------|
D:|-2---2---2-2---7---7-7---7-7-7-7-2---------------2---------------|
A:|-0---0---0-0---5---5-5---5-5-5-5-0---------------0---------------|
E:|-----------------------------------------------------------------|


Tap to rate this tab
# A B C D E F G H I J K L M N O P Q R S T U V W X Y Z