Song name
# A B C D E F G H I J K L M N O P Q R S T U V W X Y Z

Misfits - Demonomania tab

Intro "Look upon me, I am the beast"
E----------|
B----------|
G----------|
D-9----9---|
A-9----9---|
E-7----7---|

Verse             x3
E-------------------|-------------------------|
B-------------------|-------------------------|
G-10101010----------|-------------------------|
D-10101010-9-9-9-9--|-12-12-12-12-12-12-12-12-|
A-8-8-8-8--9-9-9-9--|-12-12-12-12-12-12-12-12-|
E----------7-7-7-7--|-10-10-10-10-10-10-10-10-|
                  x3
E-------------------|-------------------------|
B-------------------|-------------------------|
G-10101010----------|-------------------------|
D-10101010-9-9-9-9--|-12-12-12-12-12-12-12-12-|
A-8-8-8-8--9-9-9-9--|-12-12-12-12-12-12-12-12-|
E----------7-7-7-7--|-10-10-10-10-10-10-10-10-|

Chorus            x3
E-------------------|-----------------|
B-------------------|-----------------|
G-10101010-9-9-9-9--|-----------------|
D-10101010-9-9-9-9--|-9-9-9-9-9-9-9-9-|
A-8-8-8-8--7-7-7-7--|-9-9-9-9-9-9-9-9-|
E-------------------|-7-7-7-7-7-7-7-7-|
                  x3
E-------------------|-----------------|
B-------------------|-----------------|
G-10101010-9-9-9-9--|-----------------|
D-10101010-9-9-9-9--|-9-9-9-9-9-9-9-9-|
A-8-8-8-8--7-7-7-7--|-9-9-9-9-9-9-9-9-|
E-------------------|-7-7-7-7-7-7-7-7-|

Verse             x3
E-------------------|-------------------------|
B-------------------|-------------------------|
G-10101010----------|-------------------------|
D-10101010-9-9-9-9--|-12-12-12-12-12-12-12-12-|
A-8-8-8-8--9-9-9-9--|-12-12-12-12-12-12-12-12-|
E----------7-7-7-7--|-10-10-10-10-10-10-10-10-|
                  x3
E-------------------|-------------------------|
B-------------------|-------------------------|
G-10101010----------|-------------------------|
D-10101010-9-9-9-9--|-12-12-12-12-12-12-12-12-|
A-8-8-8-8--9-9-9-9--|-12-12-12-12-12-12-12-12-|
E----------7-7-7-7--|-10-10-10-10-10-10-10-10-|

Verse             x3
E-------------------|-------------------------|
B-------------------|-------------------------|
G-10101010----------|-------------------------|
D-10101010-9-9-9-9--|-12-12-12-12-12-12-12-12-|
A-8-8-8-8--9-9-9-9--|-12-12-12-12-12-12-12-12-|
E----------7-7-7-7--|-10-10-10-10-10-10-10-10-|
                  x3
E-------------------|-------------------------|
B-------------------|-------------------------|
G-10101010----------|-------------------------|
D-10101010-9-9-9-9--|-12-12-12-12-12-12-12-12-|
A-8-8-8-8--9-9-9-9--|-12-12-12-12-12-12-12-12-|
E----------7-7-7-7--|-10-10-10-10-10-10-10-10-|
Tap to rate this tab
# A B C D E F G H I J K L M N O P Q R S T U V W X Y Z