Song name
# A B C D E F G H I J K L M N O P Q R S T U V W X Y Z

Misfits - Devilock tab

Band: Misfits
Song: Devilock

Tabber: John Cukras
Email: riffreaper@yahoo.com

Tuning: Normal

Riff 1:
E-----------------
B-----------------
G-----------------
D-2-5-2-5-2--5----
A-2-3-2-3-2--3--5-
E-0---0---0-----3-  x's 3

Riff 2:
E------------------
B------------------
G------------------
D-2--5-----------4-
A-2--3--5--------2-
E-0-----3 x's 2 ---

Riff 1 x's 3

Riff 2 x's 2

Riff 3:
E----------------
B----------------
G----------------
D-2--5-2-5-2-5-2-
A-2--3-2-3-2-3-2-
E-0----0---0---0-

Riff 2 x's 4

Outro:
E---------------------------
B---------------------------
G---------------------------
D-5-4-5-4-5-4-5-4-5-4-5---2-
A-3-2-3-2-3-2-3-2-3-2-3---2-
E-------------------------0-
Tap to rate this tab
# A B C D E F G H I J K L M N O P Q R S T U V W X Y Z