Guitaretab - guitar tabs
Song name
# A B C D E F G H I J K L M N O P Q R S T U V W X Y Z

Misfits - Earth Ad tab

Artist: Misfits
Album:Earth A.D./Wolfsblood

e-mail me: iamtheowl133@aol.com


1.Earth A.D.

==========
 C B D C# (2x)
 C B C# (4x)  E D F (2x)
 C B C# (2x)  E D F (2x)
 B C B F (2x)  F
 E  w/noise
 C B C# (4x)  E D F (2x)
 C B C# (2x)  E D F (2x)
 B C B F (2x)  F [2x]
 E  w/noise

~~~~~~~~~~~~~~~~~~~~~~~~~~~~~~~~~~~~~~~~~~~~~~~~~~~~~~~~~~~~~~~~~~~~~~~~~~~~

2.Queen Wasp
==========
 C# B E (8x)  F#  B C# (2x)
 C# B E (8x)  F#  B C# (2x)
 C# B (6x)
 F#  B C# (2x)
 C# B E (8x)
 C# B E (4x)
 C#
~~~~~~~~~~~~~~~~~~~~~~~~~~~~~~~~~~~~~~~~~~~~~~~~~~~~~~~~~~~~~~~~~~~~~~~~~~~~

3.Devilock
----------------------|
----------------------|
This is how I play it... The Misfits don't do all the palm muting, and they don't hit 
e powerchord as often on the main riff, but I think it sounds better this way :)

Main Riff:
e|-----------------------------------------------------------|
B|-----------------------------------------------------------|
G|-------------------------------------------------5---------|
D|-2-2-2-2-2-2-2-5-2-2-2-2-2-2-2-5-2-2-2-2-2-2-2-5-5---5-----|
A|-2-2-2-2-2-2-2-5-2-2-2-2-2-2-2-5-2-2-2-2-2-2-2-5-3---5-----|
E|-0-0-0-0-0-0-0-3-0-0-0-0-0-0-0-3-0-0-0-0-0-0-0-3-----3-----|
   -----pm------   -----pm------   -----pm-------------------|

Chorus Riff:
e|-----------------------|
B|-----------------------|
G|-----------------5-5---|
D|-2-2-2-2-2-2-2-2-5-5-5-|
A|-2-2-2-2-2-2-2-2-3-3-5-|
E|-0-0-0-0-0-0-0-0-----3-|

Bridge Riff:
e|-----------------|
B|-----------------|
G|-----------------|
D|-2-2-2-2-2-2-2-2-|
A|-2-2-2-2-2-2-2-2-|
E|-0-0-0-0-0-0-0-0-|

The outro is mostly drums and feedback, and this riff:
e|-----------------|
B|-----------------|
G|-----------------|
D|-----------------|
A|-3-2-3-2-3-2-3-2-|
E|-----------------|
I don't know for sure how long that riff goes on, but it follows the same pattern for a while

~~~~~~~~~~~~~~~~~~~~~~~~~~~~~~~~~~~~~~~~~~~~~~~~~~~~~~~~~~~~~~~~~~~~~~~~~~~~

4.Green Hell
-----------------|
-----------------|
Verse:
4:-5-5-5-5-5-5-5-5-5-5-5-5-5-5-5-5-5-5-5-5-5-5-5-5-5-5-5-5-5-5-5-|
5:-5-5-5-5-5-5-5-5-5-5-5-5-5-5-5-5-5-5-5-5-5-5-5-5-5-5-5-5-5-5-5-|
6:-3-3-3-3-3-3-3-3-3-3-3-3-3-3-3-3-3-3-3-3-3-3-3-3-3-3-3-3-3-3-3-|
p.m.............................................................

Pre-Chorus:
3:-------5-----------------|
4:-8-5-8-5-5-5-5-5-5-5-5-5-|
5:-8-5-8-3-5-5-5-5-5-5-5-5-|
6:-6-3-6---3-3-3-3-3-3-3-3-|

Chorus:
3:-5-5-5-5-5-5-5-5-5-5-5-5-5-5-5-|
4:-5-5-5-5-5-5-5-5-5-5-5-5-5-5-5-|
5:-3-3-3-3-3-3-3-3-3-3-3-3-3-3-3-|

4:-5-5-5-5-5-5-5-5-5-5-5-5-5-5-5-5-5-2-2-2-2-2-2-2-2-2-2-2-2-2-2-2-2-|
5:-5-5-5-5-5-5-5-5-5-5-5-5-5-5-5-5-5-2-2-2-2-2-2-2-2-2-2-2-2-2-2-2-2-|
6:-3-3-3-3-3-3-3-3-3-3-3-3-3-3-3-3-3-0-0-0-0-0-0-0-0-0-0-0-0-0-0-0-0-|

~~~~~~~~~~~~~~~~~~~~~~~~~~~~~~~~~~~~~~~~~~~~~~~~~~~~~~~~~~~~~~~~~~~~~~~~~~~~


5.Mommy, Can I go out and Kill Tonight?
-x12-x12-----------|------------|----------|-----------------|--------------|
-------------------|------------|----------|-----------------|--------------|
--2---5------------|-2----------|-2-5-2----|-----------------|--------------|
--2---5------------|-2----------|-2-5-2-5--|-5---------------|--------------|
--0---3------------|-0----------|-0-3-0-5--|-5---------------|--------------|
-------------------|------------|-------3--|-3---------------|--------------|
 intro (X6)         interlude    riff 1 X36  outro w/feedback

~~~~~~~~~~~~~~~~~~~~~~~~~~~~~~~~~~~~~~~~~~~~~~~~~~~~~~~~~~~~~~~~~~~~~~~~~~~~


 6.Wolfsblood

Riff 1:
E-------|
B-------|
G-------|
D-2-----|     4 TIMES
A-2--5-4|
E-0--3-2|

Riff 2:
E-----------|
B-----------|
G-----------|
D-555555-2-2|  4 TIMES
A-333333-2-2|
E--------0-0|

Riff 3:
E----------------|
B----------------|
G----------------|
D----------------| 4 TIMES
A-4444444-7777777|
E-2222222-5555555|

Riff 2 4 TIMES

Riff 3 4 TIMES

Riff 1 4 TIMES

Riff 2 2 TIMES

Riff 3 2 TIMES

Riff 4:
E---------------------------------|
B---------------------------------|
G---------------------------------|
D-333333333-4444444444------------|
A-111111111-2222222222-444444444-4|
E----------------------222222222-2|

~~~~~~~~~~~~~~~~~~~~~~~~~~~~~~~~~~~~~~~~~~~~~~~~~~~~~~~~~~~~~~~~~~~~~~~~~~~~


7.Demonomania
[ Tab from: http://www.guitaretab.com/m/misfits/41267.html ]
===========
 B
 F B F Bb F B D (2x)
 F E (3x) B [2x]
 F B F Bb F B D (4x)


~~~~~~~~~~~~~~~~~~~~~~~~~~~~~~~~~~~~~~~~~~~~~~~~~~~~~~~~~~~~~~~~~~~~~~~~~~~~

8. Bloodfeast

--------------|
--------------|
Harmonic:*
Let Ring:~

Intro/verse

e----------------------------------------------------------------------------|
B----------------------------------------------------------------------------|
G-----7*~---------9-----------7--------------10-10-10-10---------------------|
D-----------------7--4x-------7--8x----------8--8--8--8----------------------|
A-----------------7-----------5--------------8--8--8--8----------------------|
E----------------------------------------------------------------------------|

pre-chorus
|---------------------------------------------------------------------------|
|---------------------------------------------------------------------------|
|------------------------------------------------9---------10---------------|
|-------------------------7----------10----------7---4x----8---4x-----------|
|-------------------------7--4x------8---4x------7---------8----------------|
|-------------------------5----------8--------------------------------------|

chorus

|----------------------------------------------------------------------------|
|----------------------------------------------------------------------------|
|---------------------------------------------------9----------10------------|
|-----------------5-----------------10--------------9--4x------8---4x--------|
|-----------------5--4x-------------8--4x-----------7----------8-------------|
|-----------------3-----------------8----------------------------------------|

song structure:


intro/verse  4x
pre-chorus  2x
intro/verse  4x
pre chorus   2x
chorus   2x


repeat...


~~~~~~~~~~~~~~~~~~~~~~~~~~~~~~~~~~~~~~~~~~~~~~~~~~~~~~~~~~~~~~~~~~~~~~~~~~~~


9.Hellhound

Note:  The E E G sequence is at the 7th and 10th frets, A string.
       The F F# G sequence is at the 1st, 2nd and 3rd frets, E string.
       The transcribed figure below is what the bass plays and is
       essentially doubled by the guitar.

G|-----------------------------------------------------------------|
D|-------------------------5-5-5-5---------------------------------|
A|-7-7-7-7-7-7-7-7-7-7-7-7----------5----3-------------------------|
E|--------------------------------------------1----2-2-2-2-3-3-3-3-|

 E E G  DCF F# G (3x)
 E E G  DCF
 F# F  F# F XXXXXX(Mute on F)
 F# F  F# F
 F# F  F# F XXXXXX(Mute on F)
 E E G  DCF F# G (5x)
 E E G  DCF
 F#


~~~~~~~~~~~~~~~~~~~~~~~~~~~~~~~~~~~~~~~~~~~~~~~~~~~~~~~~~~~~~~~~~~~~~~~~~~~~


10.Die, Die My Darlin'


Tuning: Eb, Ab, Db, Gb, Bb, Eb (All strings a semi-tone down)

B5                    G5             Gb5
Die die die my darlin, don't utter a single word.

B5                    G5             Gb5
Die die die my darlin, just shut your pretty eyes.

E5                  B5      E5                    B5
I'll be seeing you again... I'll be seeing you in hell.

G5              Gb5
So donít cry to me, oh baby.

B5                               G5           Gb5
Your future is in an oblong box. Donít cry to me, oh baby.

B5                                 G5               Gb5
You should have seen it coming on. Donít cry to me, oh baby.

B5                                G5               Gb5
Had to know it was in your cards. Donít cry to me, oh baby.

B5                                 G5               Gb5
Dead-end zone for a dead-end girl. Donít cry to me, oh baby.

B5                                      G5               Gb5
And now your life drains on that floor. Donít cry to me, oh baby.

~~~~~~~~~~~~~~~~~~~~~~~~~~~~~~~~~~~~~~~~~~~~~~~~~~~~~~~~~~~~~~~~~~~~~~~~~~~~

11. We Bite
-------------|
-------------|

RIFF-A (that should be the right amount of times for it)
E|--------------------------|
B|--------------------------|
G|--------------------------|
D|-9-9-9-9-7-7-7-5-5-5-5-5-5|
A|-9-9-9-9-7-7-7-5-5-5-5-5-5|
E|-7-7-7-7-5-5-5-5-3-3-3-3-3|

RIFF-B
E|------------------------------------------|
B|------------------------------------------|
G|------------------------------------------|
D|-12-12-12-12-12-12-12-12-5-5-5-5-5-5-5-5--|
A|-12-12-12-12-12-12-12-12-5-5-5-5-5-5-5-5--|
E|-10-10-10-10-10-10-10-10-3-3-3-3-3-3-3-3--|
Related for Earth Ad tab