Song name
# A B C D E F G H I J K L M N O P Q R S T U V W X Y Z

Misfits - Hatebreeders tab

hate breeders


E---------------------------------------------------------------------------------|
B---------------------------------------------------------------------------------|
G---------------------------------------------------------------------------------|
D-44444444----------------------8888888888-6-6-6-6-6-6-8-8-8-8-8------------------|
A-22222222-4444444444-666666666-6666666666-4-4-4-4-4-4-6-6-6-6-6-66666666-4444444-|
E----------2222222222-444444444----------------------------------44444444-2222222-|


E-----------------------------------|
B-----------------------------------|
G-----------------------------------|
D-4444-6666-2-2-2-444444-6666-2-2-2-|
A-2222-4444-2-2-2-222222-4444-2-2-2-|
E-----------0-0-0-------------0-0-0-|

E---------------------------------------------------------------------------------|
B---------------------------------------------------------------------------------|
G---------------------------------------------------------------------------------|
D-44444444----------------------8888888888-6-6-6-6-6-6-8-8-8-8-8------------------|
A-22222222-4444444444-666666666-6666666666-4-4-4-4-4-4-6-6-6-6-6-66666666-4444444-|
E----------2222222222-444444444----------------------------------44444444-2222222-|


E-----------------------------------|
B-----------------------------------|
G-----------------------------------|
D-4444-6666-2-2-2-444444-6666-2-2-2-|
A-2222-4444-2-2-2-222222-4444-2-2-2-|
E-----------0-0-0-------------0-0-0-|


E---------------------------------------------------------------------------------|
B---------------------------------------------------------------------------------|
G---------------------------------------------------------------------------------|
D-44444444----------------------8888888888-6-6-6-6-6-6-8-8-8-8-8------------------|
A-22222222-4444444444-666666666-6666666666-4-4-4-4-4-4-6-6-6-6-6-66666666-4444444-|
E----------2222222222-444444444----------------------------------44444444-2222222-|


E-----------------------------------|
B-----------------------------------|
G-----------------------------------|
D-4444-6666-2-2-2-444444-6666-2-2-2-|
A-2222-4444-2-2-2-222222-4444-2-2-2-|
E-----------0-0-0-------------0-0-0-|



E---5-7-7-7-7-7-7-7-----------------|
B-----------------------------------|
G-----------------------------------|
D-----------------------------------|
A-----------------------------------|
E-----------------------------------|  x9


E---------------------------------------|
B---------------------------------------|
G---------------------------------------|
D6-6-6-6-6-6-8-8-8-8-8------------------|
A4-4-4-4-4-4-6-6-6-6-6-66666666-4444444-|
E----------------------44444444-2222222-|


E---------------------------------------------------------------------------------|
B---------------------------------------------------------------------------------|
G---------------------------------------------------------------------------------|
D-44444444----------------------8888888888-6-6-6-6-6-6-8-8-8-8-8------------------|
A-22222222-4444444444-666666666-6666666666-4-4-4-4-4-4-6-6-6-6-6-66666666-4444444-|
E----------2222222222-444444444----------------------------------44444444-2222222-|


E-----------------------------------|
B-----------------------------------|
G-----------------------------------|
D-4444-6666-2-2-2-444444-6666-2-2-2-|
A-2222-4444-2-2-2-222222-4444-2-2-2-|
E-----------0-0-0-------------0-0-0-|

E-----------------------------------|
B-----------------------------------|
G-----------------------------------|
D-4444-6666-2-2-2-444444-6666-2-2-2-|
A-2222-4444-2-2-2-222222-4444-2-2-2-|
E-----------0-0-0-------------0-0-0-|
Tap to rate this tab
# A B C D E F G H I J K L M N O P Q R S T U V W X Y Z