Song name
# A B C D E F G H I J K L M N O P Q R S T U V W X Y Z

Misfits - Horror Hotel tab

-----------------------------------------------------------------------------
			 Horror Hotel- The Misfits
-----------------------------------------------------------------------------
Tabbed by:Eduardo

Tuning:Standard

   (0.00-0.02)
e|------------------------|
B|------------------------|
G|------------------------|
D|-7-/-9---7-/-9----------|
A|-7-/-9---7-/-9----------|
E|-5-/-7---5-/-7----------|

  (0.03-0.06)
e|-----------------------|
B|-----------------------|
G|------------9----------| 
D|-9----------9-X8-------| repeat
A|-9-X8-------7----------|
E|-7---------------------|

  (0.07-0.17)
e|-----------------------------------------------|
B|-----------------------------------------------|
G|-------9-----------9---------------------------|
D|-9-----9-X8--9-----9-X8---7-----9-----5--------|
A|-9-X8--7-----9-X8--7------7-X8--9-x8--5-x32----|
E|-7-----------7------------5-----7-----3--------|

  (0.18-0.32)
e|--------------------------------------------------------------------|
B|--------------------------------------------------------------------|
G|-------9-----------9----------9----------9--------------------------|
D|-9-----9-X8--9-----9-x8--9----9-X8--9----9-X8---7-----9-----5-------|
A|-9-X8--7-----9-X8--7-----9-X8-7-----9-X8-7------7-X8--9-x8--5-x32---|
E|-7-----------7-----------7----------7-----------5-----7-----3-------|

  (0.33-0.43)
e|--------------------------------------------------------------------|
B|--------------------------------------------------------------------|
G|-------------------------------------------------------9------------|
D|-9-9-9--5--7--9-9-9--5--7--9-9-9--5--7--9-9-9--5--7----9------------|
A|-9-9-9--5--7--9-9-9--5--7--9-9-9--5--7--9-9-9--5--7----7------------|
E|-7-7-7--3--5--7-7-7--3--5--7-7-7--3--5--7-7-7--3--5-----------------|

(0.44-0.58)
e|--------------------------------------------------------------------|
B|--------------------------------------------------------------------|
G|-------9-----------9----------9----------9--------------------------|
D|-9-----9-X8--9-----9-x8--9----9-X8--9----9-X8---7-----9-----5-------|
A|-9-X8--7-----9-X8--7-----9-X8-7-----9-X8-7------7-X8--9-x8--5-x32---|
E|-7-----------7-----------7----------7-----------5-----7-----3-------|
 
 (0.59-1.09)
e|--------------------------------------------------------------------|
B|--------------------------------------------------------------------|
G|-------------------------------------------------------9------------|
D|-9-9-9--5--7--9-9-9--5--7--9-9-9--5--7--9-9-9--5--7----9-x16--------|
A|-9-9-9--5--7--9-9-9--5--7--9-9-9--5--7--9-9-9--5--7----7------------|
E|-7-7-7--3--5--7-7-7--3--5--7-7-7--3--5--7-7-7--3--5-----------------|

 (1.10-end)
e|--------------------------------------------------------------------|
B|--------------------------------------------------------------------|
G|-------------------------------------------------------9------------|
D|-9-9-9--5--7--9-9-9--5--7--9-9-9--5--7--9-9-9--5--7----9------------|
A|-9-9-9--5--7--9-9-9--5--7--9-9-9--5--7--9-9-9--5--7----7------------|
E|-7-7-7--3--5--7-7-7--3--5--7-7-7--3--5--7-7-7--3--5-----------------|

easy song and one of my favorites

| /  slide up
| \  slide down
| h  hammer-on
| p  pull-off
| ~  vibrato
| +  harmonic
| x  Mute note
=============================================================================
Tap to rate this tab
# A B C D E F G H I J K L M N O P Q R S T U V W X Y Z