Song name
# A B C D E F G H I J K L M N O P Q R S T U V W X Y Z

Misfits - Kong At The Gates tab

Help us improve GuitareTab! Take a short survey!
-------------------------------------------------------------------------------
			     Kong at the Gates - Misfits
-------------------------------------------------------------------------------
Tabbed by: Astrozombie138

Tuning: 1/2 step down

(riff 1)
eb|--------------------------------------------|
Bb|--------------------------------------------|
Gb|--------------------------------------------|
Db|-------------5-4----2:----------------------|
Ab|---7:--------5-4----0:--3--2-3-2-3-2-3-2----|
Eb|--\5:--8-7:--3-2------------------------3---|

(riff 2)
eb|------------------------------------------|
Bb|------------------------------------------|
Gb|------------------------------------------|
Db|------------------------------------------|
Ab|--7:--8-7:--10-9-7:--8--7-8-7-8-7-8-7-----|
Eb|--5:--------8--7-5:-------------------8---|

(riff 3)
eb|----------------------------------------|
Bb|----------------------------------------|
Gb|----------------------------------------|
Db|----------------------------------------|
Ab|--7:--3-2:--10-9-7:--3--2-3-2-3-2-3-2---|
Eb|--5:--1-0:--8--7-5:--1--0-1-0-1-0-1-0---|



order:
riff 1        2x(slide to chord first time only)
riff 2        2x
riff 3        2x
end on an A chord w/ feedback


| :  Let ring
| /  slide up
| \  slide down
| h  hammer-on
| p  pull-off
| ~  vibrato
| +  harmonic
| x  Mute note
===============================================================================
Related for Kong At The Gates tab