Song name
# A B C D E F G H I J K L M N O P Q R S T U V W X Y Z

Misfits - Mommy Can I Go Out And Kill Tonight tab

-----------------------------------------------------------------------------
	      Mommy Can I Go Out And Kill Tonight - The Misfits
-----------------------------------------------------------------------------
Tabbed by:Yayo


Tuning:Standard


 1st verse
e|---------------------------------------------------------------------------|
B|---------------------------------------------------------------------------|
G|---------------------------------------------------------------------------|
D|-7-7-7-7-7-7-7-7-7-7-7-7-7-7-7-7-7-7-7-7-7-7-7-7-7-7-7---------------------|
A|-7-7-7-7-7-7-7-7-7-7-7-7-7-7-7-7-7-7-7-7-7-7-7-7-7-7-7---------------------|
E|-5-5-5-5-5-5-5-5-5-5-5-5-5-5-5-5-5-5-5-5-5-5-5-5-5-5-5---------------------|


e|---------------------------------------------------------------------------|
B|---------------------------------------------------------------------------|
G|-5-5-5-5-5-5-5-5-5-5-5-5-5-5-5-5-5-5-5-5-5-5-------------------------------|
D|-5-5-5-5-5-5-5-5-5-5-5-5-5-5-5-5-5-5-5-5-5-5-----repeat until--------------|
A|-3-3-3-3-3-3-3-3-3-3-3-3-3-3-3-3-3-3-3-3-3-3-------break-------------------|
E|---------------------------------------------------------------------------|


 2nd verse
e|---------------------------------------------------------------------------|
B|---------------------------------------------------------------------------|
G|-------5-5-------------------5-5---------------------5-5-------------------|
D|-7-7---5-5---7-7--5-5--7-7---5-5---7-7--5-5---7-7----5-5---7-7---5-5-------|
A|-7-7---3-3---7-7--5-5--7-7---3-3---7-7--5-5---7-7----3-3---7-7---5-5-------|
E|-5-5---------5-5--3-3--5-5---------5-5--3-3---5-5----------5-5---3-3-------|  Play 
end of the song


Super easy song
very fast, but very fun to play when
you need a "pump up the crowd" song


1st verse

"1 2 3 4
single out the kids who are mean to me
get stright A's but they still make fun.
I dont give a I'll laugh last.
Stayed in every night
do my homework so I'll be smart
Girls all say im a little fucked!
Mommy I'm a good boy
Mommy I'm a fuckin savior
Mommy I'm alone."

Break.....................................HERE
"Mommy... can I go out and... KILL TONIGHT?"

"rip the veins from human necks until they're wet with life
razor-blades love teenage flesh an epidermoty
i'll bring back a souvenir for it's my mommy's dream
can i go out and kill tonight,
kill tonight
killed a girl on lovers' lane i kept her toes and teeth
every night i stalk around until i find my keep
i'll bring back a souvenir for it's my mommy's dream
can i go out and kill tonight,
kill tonight killed a girl on lovers lane i kept her toes and teeth
every night i stalk around until i find my keep,
mommy i'll bring back a souvenir for it's my mommy's dream
can i go out and kill tonight,
kill tonight kill tonight,
kill tonight,
kill tonight,
kill tonight
kill tonight,
kill tonight
can i go out and kill tonight,
kill tonight
kill tonight,
kill tonight,
kill tonight,
kill tonight
kill tonight,
kill tonight"

| /  slide up
| \  slide down
| h  hammer-on
| p  pull-off
| ~  vibrato
| +  harmonic
| x  Mute note
=============================================================================
Tap to rate this tab
# A B C D E F G H I J K L M N O P Q R S T U V W X Y Z