Song name
# A B C D E F G H I J K L M N O P Q R S T U V W X Y Z

Misfits - Queen Wasp tab

Band: Misfits
Song: Queen Wasp

Tabber: John Cukras
Email: riffreaper@yahoo.com

Tuning: normal

Riff 1:    A               B
E----------------------|-------------|
B----------------------|-------------|
G----------------------|-------------|
D-22222-444-666--------|-2-4-6-------|
A-22222-222-444--------|-2-2-4-------|
E-00000-------- x's 4--|-0---- x's 4-|

Riff 2:
E---------------|
B---------------|
G---------------|
D----44-6 x's 2-|
A-3--22-4-------|
E-1-------------|

Riff 1

Riff 2 x's 2

Riff 3:
E-----------------------|
B-----------------------|
G-----------------------|
D-6---------44-6--------|
A-4-4444444-22-4  x's 6-|
E-----------------------|
pm  .......

Riff 2 x's 2

Riff 1: A x's 8 , B
Tap to rate this tab
 
# A B C D E F G H I J K L M N O P Q R S T U V W X Y Z