Song name
# A B C D E F G H I J K L M N O P Q R S T U V W X Y Z

Misfits - Return Of The Fly tab

-------------------------------------------------------------------------------
			     Return Of The Fly - Misfits
-------------------------------------------------------------------------------
Tabbed by:kurtd121

another misfits, pretty easy.

Intro:

E:|-----------------------------------------------------------------|
B:|-----------------------------------------------------------------|
G:|-----------------------------------------------------------------|
D:|-----------------------------------------------------------------|
A:|-8-------4-------8-------4-------8-------4-------8-------4-------|
E:|-6-----9\2-----9\6-----9\2-----9\6-----9\2-----9\6-----9\2-------|

Verse:

E:|-----1---1-1-----2---2-2-|
B:|-----2---2-2-----2---2-2-|
G:|-3---3---3-3-----3---3-3-|x4
D:|-3-----------4---4-------|
A:|-1-----------4-----------|
E:|-------------2-----------|

Chorus:

E:|---------------------------------------------------------|
B:|---------------------------------------------------------|
G:|-9---9---9-9-9-7---7---7-7-7-9-9-----9-9-9-7---7---7-7-7-|
D:|-9---9---9-9-9-7---7---7-7-7-9-9-----9-9-9-7---7---7-7-7-|
A:|-7---7---7-7-7-5---5---5-5-5-7-7-----7-7-7-5---5---5-5-5-|
E:|---------------------------------------------------------|

E:|---------------------------------------------------------|
B:|---------------------------------------------------------|
G:|-9---9---9-9-9-7---7---7-7-7-9-9-----9-9-9-7---6---5---4-|
D:|-9---9---9-9-9-7---7---7-7-7-9-9-----9-9-9-7---6---5---4-|
A:|-7---7---7-7-7-5---5---5-5-5-7-7-----7-7-7-5---4---3---2-|
E:|---------------------------------------------------------|

Verse:

E:|-----1---1-1-----2---2-2-|
B:|-----2---2-2-----2---2-2-|
G:|-3---3---3-3-----3---3-3-|x4
D:|-3-----------4---4-------|
A:|-1-----------4-----------|
E:|-------------2-----------|

Chorus:

E:|---------------------------------------------------------|
B:|---------------------------------------------------------|
G:|-9---9---9-9-9-7---7---7-7-7-9-9-----9-9-9-7---7---7-7-7-|
D:|-9---9---9-9-9-7---7---7-7-7-9-9-----9-9-9-7---7---7-7-7-|x3
A:|-7---7---7-7-7-5---5---5-5-5-7-7-----7-7-7-5---5---5-5-5-|
E:|---------------------------------------------------------|




E:|---------------------------------------------------------|
B:|---------------------------------------------------------|
G:|-9---9---9-9-9-7---7---7-7-7-9-9-----9-9-9-7---6---5---4-|
D:|-9---9---9-9-9-7---7---7-7-7-9-9-----9-9-9-7---6---5---4-|
A:|-7---7---7-7-7-5---5---5-5-5-7-7-----7-7-7-5---4---3---2-|
E:|---------------------------------------------------------|

Interlude:

E:|-----1---1-1-----2---2-2-|
B:|-----2---2-2-----2---2-2-|
G:|-3---3---3-3-----3---3-3-|x4
D:|-3-----------4---4-------|
A:|-1-----------4-----------|
E:|-------------2-----------|

Verse:

E:|-----1---1-1-----2---2-2-|
B:|-----2---2-2-----2---2-2-|
G:|-3---3---3-3-----3---3-3-|x4
D:|-3-----------4---4-------|
A:|-1-----------4-----------|
E:|-------------2-----------|

Outro:

E:|-------------------------------------------------------------------|
B:|-------------------------------------------------------------------|
G:|-------------------------------------------------------------------|
D:|-----------------------------------------------------------------8-|
A:|-8-------4-------8-------4-------8-------4-------8-------4-------8-|
E:|-6-----9\2-----9\6-----9\2-----9\6-----9\2-----9\6-----9\2-----9\6-|





| /  slide up
| \  slide down
| h  hammer-on
| p  pull-off
| ~  vibrato
| +  harmonic
| x  Mute note
================================================================
Tap to rate this tab
# A B C D E F G H I J K L M N O P Q R S T U V W X Y Z