Song name
# A B C D E F G H I J K L M N O P Q R S T U V W X Y Z

Misfits - Some Kinda Hate tab

Misfits - Some Kinda Hate

One of the few times there is a solo! But I still love the Misfits! Contact me
at: rattlehead.coolio@hotmail.com

Intro & Verse:                                                   (x4)
e|------------------------------------------------------------------|
B|------------------------------------------------------------------|
G|------------------------------------------------------------------|
D|--10-10--10-10-10--10-10-10--10-10--9--7-7--7-7-7--7-7-7--7-7--9--|
A|--10-10--10-10-10--10-10-10--10-10--9--7-7--7-7-7--7-7-7--7-7--9--|
E|--8--8---8--8--8---8--8--8---8--8---7--5-5--5-5-5--5-5-5--5-5--7--|

Chorus:
e|----------------------------------------------------------------------|
B|----------------------------------------------------------------------|
G|----------------------------------------------------------------------|
D|--3-3-3-3-3-3-3-3--5-5-5-5-5-5-5-5--3-3-3-3-3-3-3-3--5-5-5-5-5-5-5-5--|
A|--3-3-3-3-3-3-3-3--5-5-5-5-5-5-5-5--3-3-3-3-3-3-3-3--5-5-5-5-5-5-5-5--|
E|--1-1-1-1-1-1-1-1--3-3-3-3-3-3-3-3--1-1-1-1-1-1-1-1--3-3-3-3-3-3-3-3--|

e|-------------------------------------------------------|
B|-------------------------------------------------------|
G|-------------------------------------------------------|
D|--3-3-3-3-3-3-3-3--5-5-5-5-5-5-5-5--3--------5---------|
A|--3-3-3-3-3-3-3-3--5-5-5-5-5-5-5-5--3--------5---------|
E|--1-1-1-1-1-1-1-1--3-3-3-3-3-3-3-3--1--------3---------|

Verse:                                                           (x3)
e|------------------------------------------------------------------|
B|------------------------------------------------------------------|
G|------------------------------------------------------------------|
D|--10-10--10-10-10--10-10-10--10-10--9--7-7--7-7-7--7-7-7--7-7--9--|
A|--10-10--10-10-10--10-10-10--10-10--9--7-7--7-7-7--7-7-7--7-7--9--|
E|--8--8---8--8--8---8--8--8---8--8---7--5-5--5-5-5--5-5-5--5-5--7--|

Chorus:
e|----------------------------------------------------------------------|
B|----------------------------------------------------------------------|
G|----------------------------------------------------------------------|
D|--3-3-3-3-3-3-3-3--5-5-5-5-5-5-5-5--3-3-3-3-3-3-3-3--5-5-5-5-5-5-5-5--|
A|--3-3-3-3-3-3-3-3--5-5-5-5-5-5-5-5--3-3-3-3-3-3-3-3--5-5-5-5-5-5-5-5--|
E|--1-1-1-1-1-1-1-1--3-3-3-3-3-3-3-3--1-1-1-1-1-1-1-1--3-3-3-3-3-3-3-3--|

e|-------------------------------------------------------|
B|-------------------------------------------------------|
G|-------------------------------------------------------|
D|--3-3-3-3-3-3-3-3--5-5-5-5-5-5-5-5--3--------5---------|
A|--3-3-3-3-3-3-3-3--5-5-5-5-5-5-5-5--3--------5---------|
E|--1-1-1-1-1-1-1-1--3-3-3-3-3-3-3-3--1--------3---------|

Interlude:                                                    (x4)
e|---------------------------------------------------------------|
B|---------------------------------------------------------------|
G|-------------6-6-6-6-6-6-6-6-6--------------6-6-6-6-6-6-6-6-6--|
D|-6-6--6-6-6--6-6-6-6-6-6-6-6-6--6-6--6-6-6--6-6-6-6-6-6-6-6-6--|
A|-6-6--6-6-6--4-4-4-4-4-4-4-4-4--6-6--6-6-6--4-4-4-4-4-4-4-4-4--|
E|-4-4--4-4-4---------------------4-4--4-4-4---------------------|

Solo:
e|--------------------------------------------------------------------|
B|--------------------------------------------------------------------|
G|-14--14--14--12-----------------------------------------------------|
D|-----------------14--14--14--14-14-14--12-------12------------------|
A|------------------------------------------15-15----15-15-12-12-12---|
E|--------------------------------------------------------------------|

Verse:                                                           (x2)
e|------------------------------------------------------------------|
B|------------------------------------------------------------------|
G|------------------------------------------------------------------|
D|--10-10--10-10-10--10-10-10--10-10--9--7-7--7-7-7--7-7-7--7-7--9--|
A|--10-10--10-10-10--10-10-10--10-10--9--7-7--7-7-7--7-7-7--7-7--9--|
E|--8--8---8--8--8---8--8--8---8--8---7--5-5--5-5-5--5-5-5--5-5--7--|

Chorus:
e|----------------------------------------------------------------------|
B|----------------------------------------------------------------------|
G|----------------------------------------------------------------------|
D|--3-3-3-3-3-3-3-3--5-5-5-5-5-5-5-5--3-3-3-3-3-3-3-3--5-5-5-5-5-5-5-5--|
A|--3-3-3-3-3-3-3-3--5-5-5-5-5-5-5-5--3-3-3-3-3-3-3-3--5-5-5-5-5-5-5-5--|
E|--1-1-1-1-1-1-1-1--3-3-3-3-3-3-3-3--1-1-1-1-1-1-1-1--3-3-3-3-3-3-3-3--|

e|--------------------------------------------------------------------|
B|--------------------------------------------------------------------|
G|--------------------------------------------------------------------|
D|--3-3-3-3-3-3-3-3--5-5-5-5-5-5-5-5--3--------5--------10------------|
A|--3-3-3-3-3-3-3-3--5-5-5-5-5-5-5-5--3--------5--------10------------|
E|--1-1-1-1-1-1-1-1--3-3-3-3-3-3-3-3--1--------3--------8-------------|

Enjoy!
Tap to rate this tab
 
# A B C D E F G H I J K L M N O P Q R S T U V W X Y Z